Oops, an error
Loading. Please wait.

Watch This tab

version 1
version 1

Whole song

Interactive

by Slash
31,479 views 6 this week
4 commentsread comments
1 2 3 4 5
x 20
add to favorites
×
Save as Personal and add changes to this tab that will be seen only by you. Learn more ›
×
You can save this tab as Personal to edit and correct it or add notes. All changes will be seen only by you. Learn more »
launch autoscroll
font size
0
reset
how to read this tab
guitar tuner
backing track
0:00
0:00
edit
Autoscroll
slow
fast
+/-
esc
set tempo
stop
Author
Difficulty
WATCH THIS DAVE (SLASH FEAT. DAVE GROHL & DUFF McKAGAN)
2 guitars,both tuned DROP-D
(My very first tab ever, unnecessary screwing up won't help :P)

INTRO

E|-------------------| |-------------------|----------------------|
B|-------------------| |-------------------|----------------------|
G|-------------------| |-------------------|----------------------|
D|-------------------| |-------------------|----------------------|
A|-------------------| |-------------------|----------------------|
D|-0-12-10-0-12-9-0-8| |-0-12-10-0-12-9-0-8|-0-12-8-0-7-0-5-4>>>>>|

E|--------------------|-----------------|
B|--------------------|-----------------|
G|--------------------|-----------------|-REPEAT 4 TIMES (RIFF A)
D|---0-----0----------|---0-------------|
A|-----3-----2---1----|-----1---0-------|
D|-0-----0-----0------|-0-----0---0-5-4-|

E|--------------------|--------------------|
B|-10-8-10-7-11---8p7-|-10-8-10-7-11---8---|
G|-7--7-7--7-10---7---|-7--7-7--7-10---7---|-REPEAT TWICE, WITH RIFF A
D|--------------------|--------------------| BEING PLAYED w/PALM MUTING
A|--------------------|--------------------|
D|--------------------|--------------------|

E|-------------------|-------------------|
B|-------------------|----------------9b-|
G|-9b-7-7b---9b-7----|-9b-7-7b---9b-7----|
D|---------------(7)-|-------------------|
A|-------------------|-------------------|
D|-------------------|-------------------|
......thats all i've been able to do.
let me come up with more of it....till then,
KEEP PRACTICING!

            
            
Suggest correction
Creating personal tab
Creating personal tab
You can edit any tab online and save it as your Personal.

You can edit, replace or remove any tab part or add personal notes – all changes will be seen only by you.

Personal tabs can be accessed anytime from any device, even offline.
Learn more »
comments
print report bad tab
4 comments total. Showing first comments.
0 reply
spikewolf123 340 Jun 05, 2010 11:06 AM

finally someone has posted a tab of this song many thanks

0 reply
GNR87roxs 152 Jun 24, 2010 04:23 AM

Hey mqan this is a nice tab 5 stars... But for the intro and through out the song you can power chord the riff...

Like this
E|--------------------|--------------------|---------------|
B|--------------------|--------------------|---------------|
G|--------------------|--------------------|---------------|
D|-0-12-10-0-12-9-0-8-|-0-12-10-0-12-9-0-8-|-0-12-8-0-7-0-5|
A|-0-12-10-0-12-9-0-8-|-0-12-10-0-12-9-0-8-|-0-12-8-0-7-0-5|
E|-0-12-10-0-12-9-0-8-|-0-12-10-0-12-9-0-8-|-0-12-8-0-7-0-5|

Sorry no room for the 4 fret. But i think you guys get the idea. And sorry for my shitty version of the tab. Cheers!

0 reply
shakeyshake96 62 Oct 29, 2010 02:32 AM

@GNR87roxs-
never mind man.i was gonna do the same......but then i was in a hurry.(thanks for the 5 stars, by the way.)

guest
You may want to rate the tab now too:
select rating
Wanna post a correction for this tab? Suggest correction