Oops, an error
Loading. Please wait.
We have an official Hey tab made by UG professional guitarists. Check out the tab »
×
by Slaves
1,776 views 9 this week
1 commentread comment
1 2 3 4 5
x 4
add to favorites
×
Save as Personal and add changes to this tab that will be seen only by you. Learn more ›
×
You can save this tab as Personal to edit and correct it or add notes. All changes will be seen only by you. Learn more »
launch autoscroll
font size
0
reset
how to read this tab
guitar tuner
edit
Autoscroll
slow
fast
+/-
esc
set tempo
stop
Difficulty
intermediate
-------------------------------------------------------------------------------
                             Hey - Slaves
-------------------------------------------------------------------------------
Tabbed by: Steve


Tuning: Standard

e|---------------------------------------------------------------------------|
B|---------------------------------------------------------------------------|
G|---------------------------------------------------------------------------|
D|---------------------------------------------------------------------------| intro 
A|---------55----------------------------------------------------------------|
E|44-77-44----44-7-4-0-7-6-5-------------------------------------------------|

e|---------------------------------------------------------------------------|
B|---------------------------------------------------------------------------|
G|---------------------------------------------------------------------------|
D|---------77----------------------------------------------------------------|power chords
A|66-99-66-55-66-9-6--9-8-7--------------------------------------------------|
E|44-77-44----44-7-4--7-6-5--------------------------------------------------|

then:

intro 
power chords
intro
power chords

bridge:

e|---------------------------------------------------------------------------|
B|---------------------------------------------------------------------------|
G|---------------------------------------------------------------------------|
D|---------------------------------------------------------------------------|x8 palm muted
A|66666666/55555555----------------------------------------------------------|
E|55555555/33333333----------------------------------------------------------|
  ***************** Palm muted


then Intro x2
then power chords till the end


I created the first Hey tab, but it was one fret too high for each part except the bridge, but i can't edit
it due to not having an account, so here is the edited version.

************************************

| /   slide up
| \   slide down
| h   hammer-on
| p   pull-off
| ~   vibrato
| +   harmonic
| x   Mute note
| b   Bend
| pb  Pre-bend
| br  Bend release
| pbr Pre-bend release
| brb Bend release bend

************************************

            
            
Suggest correction
Creating personal tab
Creating personal tab
You can edit any tab online and save it as your Personal.

You can edit, replace or remove any tab part or add personal notes – all changes will be seen only by you.

Personal tabs can be accessed anytime from any device, even offline.
Learn more »
comments
print report bad tab
1 comment total.
0 reply
TorascarSimran 13 Jan 05, 2016 09:17 AM

Much better

guest
Wanna post a correction for this tab? Suggest correction