Oops, an error
Loading. Please wait.

At Dawn They Sleep tab

version 2
version 2

Whole song

Interactive

by Slayer
10,722 views 15 this week
1 commentread comment
1 2 3 4 5
x 5
add to favorites
×
Save as Personal and add changes to this tab that will be seen only by you. Learn more ›
×
You can save this tab as Personal to edit and correct it or add notes. All changes will be seen only by you. Learn more »
launch autoscroll
font size
0
reset
how to read this tab
guitar tuner
edit
Autoscroll
slow
fast
+/-
esc
set tempo
stop
At Dawn They Sleep - Slayer

****************************************************************************

At Dawn They Sleep by Slayer. There was already a tab of this, but it was not really 
So here's the complete version. Kerry King at the top, and Jeff Hanneman below. Again, the 
are at the bottom. Have fun.

****************************************************************************

Kerry King Lead Guitar


              S S S S S S S S S S S S S S S S S S S S
C ||-------|------------------------------------------|
G ||-------|------------------------------------------|
D#||-------|----------5-4-----------------------------|
A#||-------|--------6-------------5-4-----------------|
F ||-------|--------------------6-------------4-3-----|
C ||-------|--0-0-0-------0-0-0-------0-0-0-5-----4-3-|


  S S S S S S S S S S S S S S S S S S S S
------------------------------------------|
------------------------------------------|
----------5-4-----------------------------|
--------6-------------5-4-----------------|
--------------------6-------------4-3-----|
--0-0-0-------0-0-0-------0-0-0-5-----4-3-|


  S S S S S S S S S S S S S S S  S  S  S  S  S
-----------------------------------------------|
-----------------------------------------------|
----------5-4----------------------------------|
--------6-------------5-4----------------------|
--------------------6--------------12-11-------|
--0-0-0-------0-0-0-------0-0-0-13-------12-11-|


  S S S S S S S S S S S S S S S  S  S  S  S  S
-----------------------------------------------|
-----------------------------------------------|
----------5-4----------------------------------|
--------6-------------5-4----------------------|
--------------------6--------------12-11-------|
--0-0-0-------0-0-0-------0-0-0-13-------12-11-|


  S S S S S S S S S S S S S S S  S  S  S  S  S
-----------------------------------------------|
-----------------------------------------------|
----------5-4----------------------------------|
--------6-------------5-4----------------------|
--------------------6--------------12-11-------|
--0-0-0-------0-0-0-------0-0-0-13-------12-11-|


  S S S S S S S S S S S S S S S  S  S  S  S  S
-----------------------------------------------|
-----------------------------------------------|
----------5-4----------------------------------|
--------6-------------5-4----------------------|
--------------------6--------------12-11-------|
--0-0-0-------0-0-0-------0-0-0-13-------12-11-|


  E  Q       S S S S  S S S S S S S S  S  S S S
----------|-------------------------------------|
----------|-------------------------------------|
----------|-------------------------------------|
----------|----------10-9-8---------------------|
--2-------|-----------8-7-6-----------11-10-9---|
--0-------|--0-0-0-0--------0-0-0-0-0--9--8-7-0-|


  S S S S  S S S S  S  S  S S  S  S  S S
-----------------------------------------|
-----------------------------------------|
-----------------------------------------|
----------10-9-8---12-11-10--------------|
-----------8-7-6---10--9--8---12-11-10---|
--0-0-0-0--------0----------0-10--9--8-0-|


  S S S S  S S S S S S S S  S  S S S
-------------------------------------|
-------------------------------------|
-------------------------------------|
----------10-9-8---------------------|
-----------8-7-6-----------11-10-9---|
--0-0-0-0--------0-0-0-0-0--9--8-7-0-|


  S S S S  S S S S  S  S  S S  S  S  S S
-----------------------------------------|
-----------------------------------------|
-----------------------------------------|
----------10-9-8---12-11-10--------------|
-----------8-7-6---10--9--8---12-11-10---|
--0-0-0-0--------0----------0-10--9--8-0-|


  S S S S  S S S S S S S S  S  S S S
-------------------------------------|
-------------------------------------|
-------------------------------------|
----------10-9-8---------------------|
-----------8-7-6-----------11-10-9---|
--0-0-0-0--------0-0-0-0-0--9--8-7-0-|


  S S S S  S S S S  S  S  S S  S  S  S S
-----------------------------------------|
-----------------------------------------|
-----------------------------------------|
----------10-9-8---12-11-10--------------|
-----------8-7-6---10--9--8---12-11-10---|
--0-0-0-0--------0----------0-10--9--8-0-|


  S S S S  S S S S S S S S  S  S S S
-------------------------------------|
-------------------------------------|
-------------------------------------|
----------10-9-8---------------------|
-----------8-7-6-----------11-10-9---|
--0-0-0-0--------0-0-0-0-0--9--8-7-0-|


  S S S S  S S S S  S  S  S S  S  S  S S
-----------------------------------------|
-----------------------------------------|
-----------------------------------------|
----------10-9-8---12-11-10--------------|
-----------8-7-6---10--9--8---12-11-10---|
--0-0-0-0--------0----------0-10--9--8-0-|


  S S S S  S S S S S S S S  S  S S S
-------------------------------------|
-------------------------------------|
-------------------------------------|
----------10-9-8---------------------|
-----------8-7-6-----------11-10-9---|
--0-0-0-0--------0-0-0-0-0--9--8-7-0-|


  S S S S  S S S S  S  S  S S  S  S  S S
-----------------------------------------|
-----------------------------------------|
-----------------------------------------|
----------10-9-8---12-11-10--------------|
-----------8-7-6---10--9--8---12-11-10---|
--0-0-0-0--------0----------0-10--9--8-0-|


  S S S S  S S S S S S S S  S  S S S
-------------------------------------|
-------------------------------------|
-------------------------------------|
----------10-9-8---------------------|
-----------8-7-6-----------11-10-9---|
--0-0-0-0--------0-0-0-0-0--9--8-7-0-|


  S S S S  S S S S  S  S  S S  S  S  S S
-----------------------------------------|
-----------------------------------------|
-----------------------------------------|
----------10-9-8---12-11-10--------------|
-----------8-7-6---10--9--8---12-11-10---|
--0-0-0-0--------0----------0-10--9--8-0-|


  Rhy Fig 2
  S         S S S S S S S S S S S E  E
----------------------------------------|
----------------------------------------|
----------------------------------------|
----------------------------------------|
--4---------4-4-4---3-2---4-4-4-4-5--5--|
--2---------2-2-2-4-----3-2-2-2-2-3--3--|


  S S S S S S S S S S S S E  E
--------------------------------|
--------------------------------|
--------------------------------|
--------------------------------|
--4-4-4-4---3-2---4-4-4-4-5--7--|
--2-2-2-2-4-----3-2-2-2-2-3--5--|


  S S S S S S S S S S S S E  E
--------------------------------|
--------------------------------|
--------------------------------|
--------------------------------|
--4-4-4-4---3-2---4-4-4-4-5--5--|
--2-2-2-2-4-----3-2-2-2-2-3--3--|


                           End
  S S S S S S S S E  E  E  E
-------------------------------|
-------------------------------|
-------------------------------|
-------------------------------|
--4-4-4-4---3-2---7--7--5--5---|
--2-2-2-2-4-----3-5--5--3--3---|


  S S S S S S S S S S S S E  E
--------------------------------|
--------------------------------|
--------------------------------|
--------------------------------|
--4-4-4-4---3-2---4-4-4-4-5--5--|
--2-2-2-2-4-----3-2-2-2-2-3--3--|


  S S S S S S S S S S S S E  E
--------------------------------|
--------------------------------|
--------------------------------|
--------------------------------|
--4-4-4-4---3-2---4-4-4-4-5--7--|
--2-2-2-2-4-----3-2-2-2-2-3--5--|


  S S S S S S S S S S S S E  E
--------------------------------|
--------------------------------|
--------------------------------|
--------------------------------|
--4-4-4-4---3-2---4-4-4-4-5--5--|
--2-2-2-2-4-----3-2-2-2-2-3--3--|


  S S S S S S S S E  E  E  E
------------------------------|
------------------------------|
------------------------------|
------------------------------|
--4-4-4-4---3-2---7--7--5--5--|
--2-2-2-2-4-----3-5--5--3--3--|


  S S S S  S S S S S S S S  S  S S S
-------------------------------------|
-------------------------------------|
-------------------------------------|
----------10-9-8---------------------|
-----------8-7-6-----------11-10-9---|
--0-0-0-0--------0-0-0-0-0--9--8-7-0-|


  S S S S  S S S S  S  S  S S  S  S  S S
-----------------------------------------|
-----------------------------------------|
-----------------------------------------|
----------10-9-8---12-11-10--------------|
-----------8-7-6---10--9--8---12-11-10---|
--0-0-0-0--------0----------0-10--9--8-0-|


  S S S S  S S S S S S S S  S  S S S
-------------------------------------|
-------------------------------------|
-------------------------------------|
----------10-9-8---------------------|
-----------8-7-6-----------11-10-9---|
--0-0-0-0--------0-0-0-0-0--9--8-7-0-|


  S S S S  S S S S  S  S  S S  S  S  S S
-----------------------------------------|
-----------------------------------------|
-----------------------------------------|
----------10-9-8---12-11-10--------------|
-----------8-7-6---10--9--8---12-11-10---|
--0-0-0-0--------0----------0-10--9--8-0-|


  S S S S  S S S S S S S S  S  S S S
-------------------------------------|
-------------------------------------|
-------------------------------------|
----------10-9-8---------------------|
-----------8-7-6-----------11-10-9---|
--0-0-0-0--------0-0-0-0-0--9--8-7-0-|


  S S S S  S S S S  S  S  S S  S  S  S S
-----------------------------------------|
-----------------------------------------|
-----------------------------------------|
----------10-9-8---12-11-10--------------|
-----------8-7-6---10--9--8---12-11-10---|
--0-0-0-0--------0----------0-10--9--8-0-|


  S S S S  S S S S S S S S  S  S S S
-------------------------------------|
-------------------------------------|
-------------------------------------|
----------10-9-8---------------------|
-----------8-7-6-----------11-10-9---|
--0-0-0-0--------0-0-0-0-0--9--8-7-0-|


  S S S S  S S S S  S  S  S S  S  S  S S
-----------------------------------------|
-----------------------------------------|
-----------------------------------------|
----------10-9-8---12-11-10--------------|
-----------8-7-6---10--9--8---12-11-10---|
--0-0-0-0--------0----------0-10--9--8-0-|


  S S S S  S S S S S S S S  S  S S S
-------------------------------------|
-------------------------------------|
-------------------------------------|
----------10-9-8---------------------|
-----------8-7-6-----------11-10-9---|
--0-0-0-0--------0-0-0-0-0--9--8-7-0-|


  S S S S  S S S S  S  S  S S  S  S  S S
-----------------------------------------|
-----------------------------------------|
-----------------------------------------|
----------10-9-8---12-11-10--------------|
-----------8-7-6---10--9--8---12-11-10---|
--0-0-0-0--------0----------0-10--9--8-0-|


  S S S S  S S S S S S S S  S  S S S
-------------------------------------|
-------------------------------------|
-------------------------------------|
----------10-9-8---------------------|
-----------8-7-6-----------11-10-9---|
--0-0-0-0--------0-0-0-0-0--9--8-7-0-|


  S S S S  S S S S  S  S  S S  S  S  S S
-----------------------------------------|
-----------------------------------------|
-----------------------------------------|
----------10-9-8---12-11-10--------------|
-----------8-7-6---10--9--8---12-11-10---|
--0-0-0-0--------0----------0-10--9--8-0-|


  S S S S S S S S S S S S E  E
--------------------------------|
--------------------------------|
--------------------------------|
--------------------------------|
--4-4-4-4---3-2---4-4-4-4-5--5--|
--2-2-2-2-4-----3-2-2-2-2-3--3--|


  S S S S S S S S S S S S E  E
--------------------------------|
--------------------------------|
--------------------------------|
--------------------------------|
--4-4-4-4---3-2---4-4-4-4-5--7--|
--2-2-2-2-4-----3-2-2-2-2-3--5--|


  S S S S S S S S S S S S E  E
--------------------------------|
--------------------------------|
--------------------------------|
--------------------------------|
--4-4-4-4---3-2---4-4-4-4-5--5--|
--2-2-2-2-4-----3-2-2-2-2-3--3--|


  S S S S S S S S E  E  E  E
------------------------------|
------------------------------|
------------------------------|
------------------------------|
--4-4-4-4---3-2---7--7--5--5--|
--2-2-2-2-4-----3-5--5--3--3--|


  S S S S S S S S S S S S E  E
--------------------------------|
--------------------------------|
--------------------------------|
--------------------------------|
--4-4-4-4---3-2---4-4-4-4-5--5--|
--2-2-2-2-4-----3-2-2-2-2-3--3--|


  S S S S S S S S S S S S E  E
--------------------------------|
--------------------------------|
--------------------------------|
--------------------------------|
--4-4-4-4---3-2---4-4-4-4-5--7--|
--2-2-2-2-4-----3-2-2-2-2-3--5--|


  S S S S S S S S S S S S E  E     Q    H        Q
--------------------------------|---------------------|
--------------------------------|----------------0----|
--------------------------------|----------------0----|
--------------------------------|----------------0----|
--4-4-4-4---3-2---4-4-4-4-5--5--|---------------------|
--2-2-2-2-4-----3-2-2-2-2-3--3--|---------------------|


                                   |--3-|  |--6-|  |--6-
    E.    T  T   Q       E    E    S  S S  T  T T  T  T
--------------------------------------------------------|
--------------------------------------------------------|
--<>5br---5p-3-<>5brb----L~--(5)S--9-12-9-14-12-9-14-12-|
--------------------------------------------------------|
--------------------------------------------------------|
--------------------------------------------------------|


   T         T         T         T
   |---6--|  |---6--|  |------5------|               |--
   T   T  T  T   T  T  T   T  T  T   T  T S. E  T  T T
--------------------------------------------------------|
--------------------------------------------------------|
--14p-12p-9-14p-12p-9-14p-12p-9-14h-15p-9-7b-7--4p-0-6p-|
--------------------------------------------------------|
--------------------------------------------------------|
--------------------------------------------------------|


      |-3-| |-3-|      |--6-| |--6-|  |---3--|
  E   S S S S S S E    S S  S S  S S  S   S  S  T  T  T
-----------------------------------------------12-12-15--|p
----------------------12-9-12-9-12-9-12S-15-15-----------|
--------------9-7-9S-------------------------------------|
--0S--9-7-9-7--------------------------------------------|
---------------------------------------------------------|
---------------------------------------------------------|


                                                   T
   T  T  T  T T  T  T  X  X  Q       Q        E    T   T
--12-13-14-17-L-15-18-18-18-18b~----18pb~----18S---------|
---------------------------------------------18S--18p-13-|
---------------------------------------------------------|
---------------------------------------------------------|
---------------------------------------------------------|
---------------------------------------------------------|


   T      T      T      T      T      T      T      T
   9   9  9   9  9   9  9   9  9   9  9   9  9   9  9
   T   T  T   T  T   T  T   T  T   T  T   T  T   T  T
---------------------------------------------------------|
--18p-11-18p-13-19p-15-19p-13-19p-16-20p-17-20p-15-20p-1-|
---------------------------------------------------------|
---------------------------------------------------------|
---------------------------------------------------------|
---------------------------------------------------------|


            NHW    W    W W
    E.      S Q    E.   S Q
--(20)-------------------------|
-------------------------------|
---------<>16-L----L---16-L----|
-------------------------------|
-------------------------------|
-------------------------------|


   S  T  T  S S   S  T  T  S S   S  T  T  S S   S  T  T
--------------------------------------------------------|
-----17-17-17-------17-17-17-------17-17-17-------17-17-|
--17-17-17-17-9S-17-17-17-17-9S-17-17-17-17-9S-17-17-17-|
--------------------------------------------------------|
--------------------------------------------------------|
--------------------------------------------------------|


    hold bend-----------------------------------------
                                                      T
                                                      |-
    E                                                 T
--(18)pb---------------------------------------------22-|
--------------------------------------------------------|
--------------------------------------------------------|
--------------------------------------------------------|
--------------------------------------------------------|
--------------------------------------------------------|


  Rhy Fig 3
  S         S S S S S S S S S S S S S S S
------------------------------------------|
------------------------------------------|
------------------------------------------|
------------------------------------------|
--4---------4-4-4---3-2---4-4-4-4-4-4-4-4-|
--2---------2-2-2-4-----3-2-2-2-2-2-2-2-2-|


  S S S S S S S S E  E  E  E
------------------------------|
------------------------------|
------------------------------|
------------------------------|
--4-4-4-4---3-2---7--7--5--5--|
--2-2-2-2-4-----3-5--5--3--3--|


  S S S S S S S S S S S S S S S S
----------------------------------|
----------------------------------|
----------------------------------|
----------------------------------|
--4-4-4-4---3-2---4-4-4-4-4-4-4-4-|
--2-2-2-2-4-----3-2-2-2-2-2-2-2-2-|


  S S S S S S S S E  E  E  E
------------------------------|
------------------------------|
------------------------------|
------------------------------|
--4-4-4-4---3-2---7--7--5--5--|
--2-2-2-2-4-----3-5--5--3--3--|


  S S S S S S S S S S S S S S S S
----------------------------------|
----------------------------------|
----------------------------------|
----------------------------------|
--4-4-4-4---3-2---4-4-4-4-4-4-4-4-|
--2-2-2-2-4-----3-2-2-2-2-2-2-2-2-|


  S S S S S S S S E  E  E  E
------------------------------|
------------------------------|
------------------------------|
------------------------------|
--4-4-4-4---3-2---7--7--5--5--|
--2-2-2-2-4-----3-5--5--3--3--|


  S S S S S S S S S S S S S S S S
----------------------------------|
----------------------------------|
----------------------------------|
----------------------------------|
--4-4-4-4---3-2---4-4-4-4-4-4-4-4-|
--2-2-2-2-4-----3-2-2-2-2-2-2-2-2-|


  S S S S S S S S E  E  E  E
------------------------------|
------------------------------|
------------------------------|
------------------------------|
--4-4-4-4---3-2---7--7--5--5--|
--2-2-2-2-4-----3-5--5--3--3--|


  S S S S S S S S S S S S S S S S S S S S
------------------------------------------|
------------------------------------------|
----------5-4-----------------------------|
--------6-------------5-4-----------------|
--------------------6-------------4-3-----|
--0-0-0-------0-0-0-------0-0-0-5-----4-3-|


  S S S S S S S S S S S S S S S  S  S  S  S  S
-----------------------------------------------|
-----------------------------------------------|
----------5-4----------------------------------|
--------6-------------5-4----------------------|
--------------------6--------------12-11-------|
--0-0-0-------0-0-0-------0-0-0-13-------12-11-|


  S S S S S S S S S S S S S S S S S S S S
------------------------------------------|
------------------------------------------|
----------5-4-----------------------------|
--------6-------------5-4-----------------|
--------------------6-------------4-3-----|
--0-0-0-------0-0-0-------0-0-0-5-----4-3-|


  S S S S S S S S S S S S S S S  S
-----------------------------------|
-----------------------------------|
-----------------------------------|
----------5-4---------5-4----------|
--------6-----------6--------------|
--0-0-0-------0-0-0-------0-0-0-13-|


   S  S  S  S  S  S  S  S  S  S  S  S  S  S  S  S
---------------------------------------------------|
-----------------------------------------11--------|
-----------------------------------11-12----12-11~-|
--------------------12-11----11-12-----------------|
--12-11----11-12-13-------12-----------------------|
--------12-----------------------------------------|


   H.             E  S S
-------------------------|
-------------------------|
--11~------------11------|
-------------------------|
-------------------------|
---------------------3-1-|


  Rhy Fig 4
  E         E  E  E  E  E  E  S S
----------------------------------|
----------------------------------|
----------------------------------|
----------------------------------|
---------------------3------------|
--0---------0--0--0--1--0--0--3-1-|


  E  E  E  E  E  E  E  S S    E  E  E  E  E  E  E  E
---------------------------|--------------------------|
---------------------------|--------------------------|
---------------------------|--------------------------|
---------------------------|--------------------------|
--------------3------------|--------------3-----------|
--0--0--0--0--1--0--0--3-1-|--0--0--0--0--1--0--0--0--|


  E  E  E  E  E  E  E  E     E  E  E  E  E  E  E  S S
--------------------------|---------------------------|
--------------------------|---------------------------|
--------------------------|---------------------------|
-----------1-----------4--|---------------------------|
-----3--2--------6--5-----|--------------3------------|
--1-----------4-----------|--0--0--0--0--1--0--0--3-1-|


  E  E  E  E  E  E  E  S S    E  E  E  E  E  E  E  E
---------------------------|--------------------------|
---------------------------|--------------------------|
---------------------------|--------------------------|
---------------------------|--------------------------|
--------------3------------|--------------3-----------|
--0--0--0--0--1--0--0--3-1-|--0--0--0--0--1--0--0--0--|


  E  E  E  E  E  E  E  E
--------------------------|
--------------------------|
--------------------------|
-----------1--------------|
-----3--2--------6--5-----|
--1-----------4--------5--|


  Rhy Fig 4
  E         E  E  E  E  E  E  S S
----------------------------------|
----------------------------------|
----------------------------------|
----------------------------------|
---------------------3------------|
--0---------0--0--0--1--0--0--3-1-|


  E  E  E  E  E  E  E  S S    E  E  E  E  E  E  E  E
---------------------------|--------------------------|
---------------------------|--------------------------|
---------------------------|--------------------------|
---------------------------|--------------------------|
--------------3------------|--------------3-----------|
--0--0--0--0--1--0--0--3-1-|--0--0--0--0--1--0--0--0--|


  E  E  E  E  E  E  E  E     E  E  E  E  E  E  E  S S
--------------------------|---------------------------|
--------------------------|---------------------------|
--------------------------|---------------------------|
-----------1-----------4--|---------------------------|
-----3--2--------6--5-----|--------------3------------|
--1-----------4-----------|--0--0--0--0--1--0--0--3-1-|


  E  E  E  E  E  E  E  S S    E  E  E  E  E  E  E  E
---------------------------|--------------------------|
---------------------------|--------------------------|
---------------------------|--------------------------|
---------------------------|--------------------------|
--------------3------------|--------------3-----------|
--0--0--0--0--1--0--0--3-1-|--0--0--0--0--1--0--0--0--|


  E  E  E  E  E  E  E  E
--------------------------|
--------------------------|
--------------------------|
-----------1--------------|
-----3--2--------6--5-----|
--1-----------4--------5--|


  Rhy Fig 4
  E         E  E  E  E  E  E  S S
----------------------------------|
----------------------------------|
----------------------------------|
----------------------------------|
---------------------3------------|
--0---------0--0--0--1--0--0--3-1-|


  E  E  E  E  E  E  E  S S    E  E  E  E  E  E  E  E
---------------------------|--------------------------|
---------------------------|--------------------------|
---------------------------|--------------------------|
---------------------------|--------------------------|
--------------3------------|--------------3-----------|
--0--0--0--0--1--0--0--3-1-|--0--0--0--0--1--0--0--0--|


  E  E  E  E  E  E  E  E     E  E  E  E  E  E  E  S S
--------------------------|---------------------------|
--------------------------|---------------------------|
--------------------------|---------------------------|
-----------1-----------4--|---------------------------|
-----3--2--------6--5-----|--------------3------------|
--1-----------4-----------|--0--0--0--0--1--0--0--3-1-|


  E  E  E  E  E  E  E  S S    E  E  E  E  E  E  E  E
---------------------------|--------------------------|
---------------------------|--------------------------|
---------------------------|--------------------------|
---------------------------|--------------------------|
--------------3------------|--------------3-----------|
--0--0--0--0--1--0--0--3-1-|--0--0--0--0--1--0--0--0--|


  E  E  E  E  E  E  E  E
--------------------------|
--------------------------|
--------------------------|
-----------1--------------|
-----3--2--------6--5-----|
--1-----------4--------5--|


  Rhy Fig 4
  E         E  E  E  E  E  E  S S
----------------------------------|
----------------------------------|
----------------------------------|
----------------------------------|
---------------------3------------|
--0---------0--0--0--1--0--0--3-1-|


  E  E  E  E  E  E  E  S S    E  E  E  E  E  E  E  E
---------------------------|--------------------------|
---------------------------|--------------------------|
---------------------------|--------------------------|
---------------------------|--------------------------|
--------------3------------|--------------3-----------|
--0--0--0--0--1--0--0--3-1-|--0--0--0--0--1--0--0--0--|


  E  E  E  E  E  E  E  E     E  E  E  E  E  E  E  S S
--------------------------|---------------------------|
--------------------------|---------------------------|
--------------------------|---------------------------|
-----------1-----------4--|---------------------------|
-----3--2--------6--5-----|--------------3------------|
--1-----------4-----------|--0--0--0--0--1--0--0--3-1-|


  E  E  E  E  E  E  E  S S    E  E  E  E  E  E  E  E
---------------------------|--------------------------|
---------------------------|--------------------------|
---------------------------|--------------------------|
---------------------------|--------------------------|
--------------3------------|--------------3-----------|
--0--0--0--0--1--0--0--3-1-|--0--0--0--0--1--0--0--0--|


  H        H           E  E  E  E  E  E  E  S   S
--------------------|-----------------------------|
--------------------|-----------------------------|
--------------------|-----------------------------|
--------------------|--9--------------------9S-10-|
--3--------6--------|--7-----------7--------7S--8-|
--1--------4--------|-----0--0--0--0--0--0--------|


  E  E  E  E  E  E  E  S   S
-----------------------------|
-----------------------------|
-----------------------------|
--9--------------------9S-10-|
--7-----------7--------7S--8-|
-----0--0--0--0--0--0--------|


  E  E  E  E  E  E  E  S   S
-----------------------------|
-----------------------------|
-----------------------------|
--9--------------------9S-10-|
--7-----------7--------7S--8-|
-----0--0--0--0--0--0--------|


  E  E  E  E  E  E   Q
--------------------------|
--------------------------|
--------------------------|
--9-----------------10----|
--7-----------7------8----|
-----0--0--0--0--0--------|


  E  E  E  E  E  E  E  S   S
-----------------------------|
-----------------------------|
-----------------------------|
--9--------------------9S-10-|
--7-----------7--------7S--8-|
-----0--0--0--0--0--0--------|


  E  E  E  E  E  E  E  S   S
-----------------------------|
-----------------------------|
-----------------------------|
--9--------------------9S-10-|
--7-----------7--------7S--8-|
-----0--0--0--0--0--0--------|


  E  E  E  E  E  E  E  S   S
-----------------------------|
-----------------------------|
-----------------------------|
--9--------------------9S-10-|
--7-----------7--------7S--8-|
-----0--0--0--0--0--0--------|


  E  E  E  E  E  E   Q       E  E  E  E  E  E   E  E
--------------------------|---------------------------|
--------------------------|---------------------------|
--------------------------|---------------------------|
--9-----------------10----|------------------------7--|
--7-----------7------8----|-----7--8-----7--8--10-----|
-----0--0--0--0--0--------|--0--------0---------------|


  E  E  E  E  E  E  E  E      E  E  E  E  E  E   E  E
---------------------------|---------------------------|
---------------------------|---------------------------|
---------------------------|---------------------------|
--------------------7--8~--|------------------------7--|
-----7--8-----7--8---------|-----7--8-----7--8--10-----|
--0--------0---------------|--0--------0---------------|


  E  E  E  E  E  E  E   E     E  E  E  E  E  E   E  E
---------------------------|---------------------------|
---------------------------|---------------------------|
---------------------------|---------------------------|
---------------------------|------------------------7--|
-----7--8-----7--8---------|-----7--8-----7--8--10-----|
--0--------0--------8--10--|--0--------0---------------|


  E  E  E  E  E  E  E  E      E  E  E  E  E  E   E  E
---------------------------|---------------------------|
---------------------------|---------------------------|
---------------------------|---------------------------|
--------------------7--8~--|------------------------7--|
-----7--8-----7--8---------|-----7--8-----7--8--10-----|
--0--------0---------------|--0--------0---------------|


  E  E  E  E  E  E  E   E     E  E  E  E  E  E   E  E
---------------------------|---------------------------|
---------------------------|---------------------------|
---------------------------|---------------------------|
---------------------------|------------------------7--|
-----7--8-----7--8---------|-----7--8-----7--8--10-----|
--0--------0--------8--10--|--0--------0---------------|


  E  E  E  E  E  E  E  E      E  E  E  E  E  E   E  E
---------------------------|---------------------------|
---------------------------|---------------------------|
---------------------------|---------------------------|
--------------------7--8~--|------------------------7--|
-----7--8-----7--8---------|-----7--8-----7--8--10-----|
--0--------0---------------|--0--------0---------------|


  E  E  E  E  E  E  E   E     E  E  E  E  E  E  E  E
---------------------------|--------------------------|
---------------------------|--------------------------|
---------------------------|--------------------------|
---------------------------|--------2-----------3-----|
-----7--8-----7--8---------|-----2-----2-----3-----3--|
--0--------0--------8--10--|--0-----------0-----------|


  E  E  E  E  E  E  E  E     E  E  E  E  E  E  E  E
--------------------------|--------------------------|
--------------------------|--------------------------|
--------------------------|--------------------------|
--------2-----------3-----|--------2-----------3-----|
-----2-----2-----3-----3--|-----2-----2-----3-----3--|
--0-----------0-----------|--0-----------0-----------|


  E  E  E  E  E  E  E  E     E  E  E  E  E  E  E  E
--------------------------|--------------------------|
--------------------------|--------------------------|
--------------------------|--------------------------|
--------2-----------3-----|--------2-----------3-----|
-----2-----2-----3-----3--|-----2-----2-----3-----3--|
--0-----------0-----------|--0-----------0-----------|


  E  E  E  E  E  E  E  E     E  E  E  E  E  E  E  E
--------------------------|--------------------------|
--------------------------|--------------------------|
--------------------------|--------------------------|
--------2-----------3-----|--------2-----------3-----|
-----2-----2-----3-----3--|-----2-----2-----3-----3--|
--0-----------0-----------|--0-----------0-----------|


  E  E  E  E  E  E  E  E     Q    Q    Q    Q
--------------------------|----------------------|
--------------------------|----------------------|
--------------------------|----------------------|
--------2-----------3-----|----------------------|
-----2-----2-----3-----3--|--2----2----3----3----|
--0-----------0-----------|--0----0----1----1----|


  Q    Q    Q    Q       Q    Q    Q    Q
----------------------|----------------------|
----------------------|----------------------|
----------------------|----------------------|
----------------------|----------------------|
--2----2----3----3----|--2----2----3----3----|
--0----0----1----1----|--0----0----1----1----|


  Q    Q    Q    Q
----------------------|
----------------------|
----------------------|
----------------------|
--2----2----3----3----|
--0----0----1----1----|


  S S S S S S S S S S S S S S S S
----------------------------------|
----------------------------------|
----------------------------------|
----------------------------------|
----------------------------------|
--0-0-0-0-0-0-0-0-1-1-1-1-1-1-1-1-|


  S S S S S S S S S S S S S S S S
----------------------------------|
----------------------------------|
----------------------------------|
----------------------------------|
----------------------------------|
--0-0-0-0-0-0-0-0-1-1-1-1-1-1-1-1-|


  S S S S S S S S S S S S S S S S
----------------------------------|
----------------------------------|
----------------------------------|
----------------------------------|
----------------------------------|
--0-0-0-0-0-0-0-0-1-1-1-1-1-1-1-1-|


  S S S S S S S S S S S S S S S S    W
----------------------------------|-------------------|
----------------------------------|-------------------|
----------------------------------|-------------------|
----------------------------------|-------------------|
----------------------------------|-------------------|
--0-0-0-0-0-0-0-0-1-1-1-1-1-1-1-1-|-------------------|


  W                   W
-------------------|-------------------|
-------------------|-------------------|
-------------------|-------------------|
-------------------|-------------------|
-------------------|-------------------|
-------------------|-------------------|


  W                   E  S S E  S S E  E  E  E
-------------------|----------------------------|
-------------------|----------------------------|
-------------------|----------------------------|
-------------------|----------------------------|
-------------------|--4------4------4--5--4-----|
-------------------|--2--0-0-2--0-0-2--3--2--0--|


  E  S S E  S S E  E  E  E
----------------------------|
----------------------------|
----------------------------|
----------------------------|
--4------4------4--5--4-----|
--2--0-0-2--0-0-2--3--2--0--|


  E  S S E  S S E  E  E  E
----------------------------|
----------------------------|
----------------------------|
----------------------------|
--4------4------4--5--4-----|
--2--0-0-2--0-0-2--3--2--0--|


  E  S S E  S S E  S S Q
----------------------------|
----------------------------|
----------------------------|
----------------------------|
--4------4------4------3----|
--2--0-0-2--0-0-2--0-0-1----|


  E  S S E  S S E  E  E  E
----------------------------|
----------------------------|
----------------------------|
----------------------------|
--4------4------4--5--4-----|
--2--0-0-2--0-0-2--3--2--0--|


  E  S S E  S S E  E  E  E
----------------------------|
----------------------------|
----------------------------|
----------------------------|
--4------4------4--5--4-----|
--2--0-0-2--0-0-2--3--2--0--|


  E  S S E  S S E  E  E  E
----------------------------|
----------------------------|
----------------------------|
----------------------------|
--4------4------4--5--4-----|
--2--0-0-2--0-0-2--3--2--0--|


  E  S S E  S S E  S S Q
----------------------------|
----------------------------|
----------------------------|
----------------------------|
--4------4------4------3----|
--2--0-0-2--0-0-2--0-0-1----|


  E  S S E  S S E  E  E  E
----------------------------|
----------------------------|
----------------------------|
----------------------------|
--4------4------4--5--4-----|
--2--0-0-2--0-0-2--3--2--0--|


  E  S S E  S S E  E  E  E
----------------------------|
----------------------------|
----------------------------|
----------------------------|
--4------4------4--5--4-----|
--2--0-0-2--0-0-2--3--2--0--|


  E  S S E  S S E  E  E  E
----------------------------|
----------------------------|
----------------------------|
----------------------------|
--4------4------4--5--4-----|
--2--0-0-2--0-0-2--3--2--0--|


  E  S S E  S S E  S S Q
----------------------------|
----------------------------|
----------------------------|
-----------------------7----|
--4------4------4------5----|
--2--0-0-2--0-0-2--0-0------|


  E  S S E  S S E  S S E   E
------------------------------|
------------------------------|
------------------------------|
--9------9------9------9--12--|
--7------7------7------7--10--|
-----0-0----0-0----0-0--------|


  E  S S E  S S E  S S E   E
------------------------------|
------------------------------|
------------------------------|
--9------9------9------9--11--|
--7------7------7------7---9--|
-----0-0----0-0----0-0--------|


  E  S S E  S S E  S S E   E
------------------------------|
------------------------------|
------------------------------|
--9------9------9------9--10--|
--7------7------7------7---8--|
-----0-0----0-0----0-0--------|


  E  E  E  E  E  E  E  E
--------------------------|
--------------------------|
--------------------------|
--9--8-----8--7-----7--6--|
--7--6--8--6--5--7--5--4--|
--------6--------5--------|


  E  S S E  S S E  S S E   E
------------------------------|
------------------------------|
------------------------------|
--9------9------9------9--12--|
--7------7------7------7--10--|
-----0-0----0-0----0-0--------|


  E  S S E  S S E  S S E   E
------------------------------|
------------------------------|
------------------------------|
--9------9------9------9--11--|
--7------7------7------7---9--|
-----0-0----0-0----0-0--------|


  E  S S E  S S E  S S E   E
------------------------------|
------------------------------|
------------------------------|
--9------9------9------9--10--|
--7------7------7------7---8--|
-----0-0----0-0----0-0--------|


  E  E  E  E  E  E  E  E
--------------------------|
--------------------------|
--------------------------|
--9--8-----8--7-----7--6--|
--7--6--8--6--5--7--5--4--|
--------6--------5--------|


  E  S S E  S S E  S S E   E
------------------------------|
------------------------------|
------------------------------|
--9------9------9------9--12--|
--7------7------7------7--10--|
-----0-0----0-0----0-0--------|


  E  S S E  S S E  S S E   E
------------------------------|
------------------------------|
------------------------------|
--9------9------9------9--11--|
--7------7------7------7---9--|
-----0-0----0-0----0-0--------|


  E  S S E  S S E  S S E   E
------------------------------|
------------------------------|
------------------------------|
--9------9------9------9--10--|
--7------7------7------7---8--|
-----0-0----0-0----0-0--------|


  E  E  E  E  E  E  E  E
--------------------------|
--------------------------|
--------------------------|
--9--8-----8--7-----7--6--|
--7--6--8--6--5--7--5--4--|
--------6--------5--------|


  E  S S E  S S E  S S E   E
------------------------------|
------------------------------|
------------------------------|
--9------9------9------9--12--|
--7------7------7------7--10--|
-----0-0----0-0----0-0--------|


  E  S S E  S S E  S S E   E
------------------------------|
------------------------------|
------------------------------|
--9------9------9------9--11--|
--7------7------7------7---9--|
-----0-0----0-0----0-0--------|


                                 solo3
                                 W
  E  S S E  S S E  S S E   E     W
------------------------------|-------------------|
------------------------------|-------------------|
------------------------------|--0----------------|
--9------9------9------9--10--|-------------------|
--7------7------7------7---8--|-------------------|
-----0-0----0-0----0-0--------|-------------------|


  W                   W
  W                   W
-------------------|-------------------|
-------------------|-------------------|
--L----------------|--L----------------|
-------------------|-------------------|
-------------------|-------------------|
-------------------|-------------------|


                                       |---3---|
   S  S  S  S  S  S  S  S  S  S  S  S  E   E   E
--------------------------------------------------|
--------------------------------------------------|
--12-14-16-14-12-14-16-14-12-14-16-14-12--14--16--|
--------------------------------------------------|
--------------------------------------------------|
--------------------------------------------------|


   |---3---|   |-----3----|
   E   E   E   E   E   S  S  S  S  S  S  T  T  S  S  S
-------------------------------------------------------|
--------------12--13--15-13-12-------12-13-15-13-12----|
--14--12--14-------------------14-12----------------14-|
-------------------------------------------------------|
-------------------------------------------------------|
-------------------------------------------------------|


   |---3---|   |---3--|                  |-----5-----|
   E   E   E   E  E   E   T  T  S  S  S  S  S  S  S  S
---------------------12--13-12-15-13-12----------------|
--12--13--15--12--5---------------------15-13-12-13-12-|
-------------------------------------------------------|
-------------------------------------------------------|
-------------------------------------------------------|
-------------------------------------------------------|


              |---3---|        |----3---|
   E   S   S  S   S   S  S  S  E    E   E   Q
-------------------------------------------------|
-----------------------------------15--15b--L----|
--14--12h-14-12h-14p-12----12-14b----------------|
------------------------14-----------------------|
-------------------------------------------------|
-------------------------------------------------|


    E    Q.      Q      Q
----------------12-----12-----|
--(15)--15------15b----15b----|
------------------------------|
------------------------------|
------------------------------|
------------------------------|


   Q      Q      H
--14-----14-----14---------|
--17b----17b----17b--------|
---------------------------|
---------------------------|
---------------------------|
---------------------------|


   Q.       E    Q.       E
--15-------15---17-------17---|
--18b------18b--20b------20b--|
------------------------------|
------------------------------|
------------------------------|
------------------------------|


   Q       S      S     S  S    S  S  S  S  E   S  S
--18------18-----18----18-18---18-18-18-18-18--21-21-|
--21b----(21)pb-(21)pb----21pb-----------------------|
-----------------------------------------------------|
-----------------------------------------------------|
-----------------------------------------------------|
-----------------------------------------------------|


    Q.         E     Q      Q
--(21)b~------21pb~--L~----21pb~----|
------------------------------------|
------------------------------------|
------------------------------------|
------------------------------------|
------------------------------------|


    Q         Q        S  S  S   S  S  S  S   S
--(21)pb~----21pb~----19-19-22p-19----19-22p-19-|
-----------------------------------22-----------|
------------------------------------------------|
------------------------------------------------|
------------------------------------------------|
------------------------------------------------|


                                     |---3---|
   S  S  S   S  S   S  S   S  S  S   S   S   S   S  S  S
-----19-22p-19-------------------------------------------|
--22-----------22p-19-22p-19----19h-22p-19h-22p-19-19----|
-----------------------------21-----------------------22-|
---------------------------------------------------------|
---------------------------------------------------------|
---------------------------------------------------------|


   S   S  E   H         Q
-----------------------------|
--22p-19-----19---------L----|
---------21--21b--------L----|
-----------------------------|
-----------------------------|
-----------------------------|


  E  S S E  S S E  E  E  E
----------------------------|
----------------------------|
----------------------------|
----------------------------|
--4------4------4--5--4-----|
--2--0-0-2--0-0-2--3--2--0--|


  E  S S E  S S E  E  E  E     E  E  E  E  E  E  E  E
----------------------------|--------------------------|
----------------------------|--------------------------|
----------------------------|--------------------------|
----------------------------|--8--7-----7--6-----6--5--|
--4------4------4--5--4-----|--6--5--7--5--4--6--4--3--|
--2--0-0-2--0-0-2--3--2--0--|--------5--------4--------|


  E  S S E  S S E  E  E  E
----------------------------|
----------------------------|
----------------------------|
----------------------------|
--4------4------4--5--4-----|
--2--0-0-2--0-0-2--3--2--0--|


  E  S S E  S S E  E  E  E
----------------------------|
----------------------------|
----------------------------|
----------------------------|
--4------4------4--5--4-----|
--2--0-0-2--0-0-2--3--2--0--|


  E  S S E  S S E  E  E  E     E  E  E  E  E  E  E  E
----------------------------|--------------------------|
----------------------------|--------------------------|
----------------------------|--------------------------|
----------------------------|--8--7-----7--6-----6--5--|
--4------4------4--5--4-----|--6--5--7--5--4--6--4--3--|
--2--0-0-2--0-0-2--3--2--0--|--------5--------4--------|


    E  S S E  S S E  E  E  E
|-----------------------------|
|-----------------------------|
|*----------------------------|
|*----------------------------|
|---4------4------4--5--4-----|
|---2--0-0-2--0-0-2--3--2--0--|


  E  E  E  E  E  E  E  E   3x  E  E  E  E  E  E  E  E
---------------------------||--------------------------|
---------------------------||--------------------------|
--------------------------*||--------------------------|
--8--7-----7--6-----6--5--*||--8--7-----7--6-----6--5--|
--6--5--7--5--4--6--4--3---||--6--5--7--5--4--6--4--3--|
--------5--------4---------||--------5--------4--------|


        W
-----|-------------------|-------------------|
-----|-------------------|-------------------|
-----|-------------------|-------------------|
-----|-------------------|-------------------|
-----|-------------------|-------------------|
-----|-------------------|-------------------|


-------------------|-------------------|
-------------------|-------------------|
-------------------|-------------------|
-------------------|-------------------|
-------------------|-------------------|
-------------------|-------------------|


-------------------|-------------------|
-------------------|-------------------|
-------------------|-------------------|
-------------------|-------------------|
-------------------|-------------------|
-------------------|-------------------|


  Rhy Fig 1
  S         S S S  S S S S S S S S  S  S S S
---------------------------------------------|
---------------------------------------------|
---------------------------------------------|
------------------10-9-8---------------------|
-------------------8-7-6-----------11-10-9---|
--0---------0-0-0--------0-0-0-0-0--9--8-7-0-|


                                       End
  S S S S  S S S S  S  S  S S  S  S  S S
-------------------------------------------|
-------------------------------------------|
-------------------------------------------|
----------10-9-8---12-11-10----------------|
-----------8-7-6---10--9--8---12-11-10-----|
--0-0-0-0--------0----------0-10--9--8-0---|


  Rhy Fig 1
  S         S S S  S S S S S S S S  S  S S S
---------------------------------------------|
---------------------------------------------|
---------------------------------------------|
------------------10-9-8---------------------|
-------------------8-7-6-----------11-10-9---|
--0---------0-0-0--------0-0-0-0-0--9--8-7-0-|


  S S S S  S S S S  S  S  S S S S E
-------------------------------------|-----||
-------------------------------------|-----||
-------------------------------------|-----||
----------10-9-8---12-11-10----------|-----||
-----------8-7-6---10--9--8---5-4-2--|-----||
--0-0-0-0--------0----------0-3-2-0--|-----||


Jeff Hanneman rhythm guitar


              S S S S S S S S S S S S S S S S S S S S
C ||-------|------------------------------------------|
G ||-------|------------------------------------------|
D#||-------|----------8-7-----------------------------|
A#||-------|--------9-------------8-7-----------------|
F ||-------|--------------------9-------------7-6-----|
C ||-------|--0-0-0-------0-0-0-------0-0-0-8-----7-6-|


  S S S S S S S S S S S S S S S S S S S S
------------------------------------------|
------------------------------------------|
----------8-7-----------------------------|
--------9-------------8-7-----------------|
--------------------9-------------7-6-----|
--0-0-0-------0-0-0-------0-0-0-8-----7-6-|


  S S S S S S S S S S S S S S S S S S S S
------------------------------------------|
------------------------------------------|
----------8-7-----------------------------|
--------9-------------8-7-----------------|
--------------------9-------------7-6-----|
--0-0-0-------0-0-0-------0-0-0-8-----7-6-|


  S S S S S S S S S S S S S S S S S S S S
------------------------------------------|
------------------------------------------|
----------8-7-----------------------------|
--------9-------------8-7-----------------|
--------------------9-------------7-6-----|
--0-0-0-------0-0-0-------0-0-0-8-----7-6-|


  S S S S S S S S S S S S S S S S S S S S
------------------------------------------|
------------------------------------------|
----------8-7-----------------------------|
--------9-------------8-7-----------------|
--------------------9-------------7-6-----|
--0-0-0-------0-0-0-------0-0-0-8-----7-6-|


  S S S S S S S S S S S S S S S S S S S S    E  Q
------------------------------------------|----------|
------------------------------------------|----------|
----------8-7-----------------------------|----------|
--------9-------------8-7-----------------|----------|
--------------------9-------------7-6-----|--2-------|
--0-0-0-------0-0-0-------0-0-0-8-----7-6-|--0-------|


  Rhy Fig 1
  S         S S S  S S S S S S S S  S  S S S
---------------------------------------------|
---------------------------------------------|
---------------------------------------------|
------------------10-9-8---------------------|
-------------------8-7-6-----------11-10-9---|
--0---------0-0-0--------0-0-0-0-0--9--8-7-0-|


                                       End
  S S S S  S S S S  S  S  S S  S  S  S S
-------------------------------------------|
-------------------------------------------|
-------------------------------------------|
----------10-9-8---12-11-10----------------|
-----------8-7-6---10--9--8---12-11-10-----|
--0-0-0-0--------0----------0-10--9--8-0---|


  S S S S  S S S S S S S S  S  S S S
-------------------------------------|
-------------------------------------|
-------------------------------------|
----------10-9-8---------------------|
-----------8-7-6-----------11-10-9---|
--0-0-0-0--------0-0-0-0-0--9--8-7-0-|


  S S S S  S S S S  S  S  S S  S  S  S S
-----------------------------------------|
-----------------------------------------|
-----------------------------------------|
----------10-9-8---12-11-10--------------|
-----------8-7-6---10--9--8---12-11-10---|
--0-0-0-0--------0----------0-10--9--8-0-|


  Rhy Fig 1
  S         S S S  S S S S S S S S  S  S S S
---------------------------------------------|
---------------------------------------------|
---------------------------------------------|
------------------10-9-8---------------------|
-------------------8-7-6-----------11-10-9---|
--0---------0-0-0--------0-0-0-0-0--9--8-7-0-|


                                       End
  S S S S  S S S S  S  S  S S  S  S  S S
-------------------------------------------|
-------------------------------------------|
-------------------------------------------|
----------10-9-8---12-11-10----------------|
-----------8-7-6---10--9--8---12-11-10-----|
--0-0-0-0--------0----------0-10--9--8-0---|


  Rhy Fig 1
  S         S S S  S S S S S S S S  S  S S S
---------------------------------------------|
---------------------------------------------|
---------------------------------------------|
------------------10-9-8---------------------|
-------------------8-7-6-----------11-10-9---|
--0---------0-0-0--------0-0-0-0-0--9--8-7-0-|


                                       End
  S S S S  S S S S  S  S  S S  S  S  S S
-------------------------------------------|
-------------------------------------------|
-------------------------------------------|
----------10-9-8---12-11-10----------------|
-----------8-7-6---10--9--8---12-11-10-----|
--0-0-0-0--------0----------0-10--9--8-0---|


  Rhy Fig 1
  S         S S S  S S S S S S S S  S  S S S
---------------------------------------------|
---------------------------------------------|
---------------------------------------------|
------------------10-9-8---------------------|
-------------------8-7-6-----------11-10-9---|
--0---------0-0-0--------0-0-0-0-0--9--8-7-0-|


                                       End
  S S S S  S S S S  S  S  S S  S  S  S S
-------------------------------------------|
-------------------------------------------|
-------------------------------------------|
----------10-9-8---12-11-10----------------|
-----------8-7-6---10--9--8---12-11-10-----|
--0-0-0-0--------0----------0-10--9--8-0---|


  Rhy Fig 1
  S         S S S  S S S S S S S S  S  S S S
---------------------------------------------|
---------------------------------------------|
---------------------------------------------|
------------------10-9-8---------------------|
-------------------8-7-6-----------11-10-9---|
--0---------0-0-0--------0-0-0-0-0--9--8-7-0-|


                                       End
  S S S S  S S S S  S  S  S S  S  S  S S
-------------------------------------------|
-------------------------------------------|
-------------------------------------------|
----------10-9-8---12-11-10----------------|
-----------8-7-6---10--9--8---12-11-10-----|
--0-0-0-0--------0----------0-10--9--8-0---|


  Rhy Fig 2
  S         S S S S S S S S S S S E  E
----------------------------------------|
----------------------------------------|
----------------------------------------|
----------------------------------------|
--4---------4-4-4---3-2---4-4-4-4-5--5--|
--2---------2-2-2-4-----3-2-2-2-2-3--3--|


  S S S S S S S S S S S S E  E
--------------------------------|
--------------------------------|
--------------------------------|
--------------------------------|
--4-4-4-4---3-2---4-4-4-4-5--7--|
--2-2-2-2-4-----3-2-2-2-2-3--5--|


  S S S S S S S S S S S S E  E
--------------------------------|
--------------------------------|
--------------------------------|
--------------------------------|
--4-4-4-4---3-2---4-4-4-4-5--5--|
--2-2-2-2-4-----3-2-2-2-2-3--3--|


                               End
  S S S S S S S S  E   E   E   E
----------------------------------|
----------------------------------|
----------------------------------|
------------------14--14--12--12--|
--4-4-4-4---3-2---12--12--10--10--|
--2-2-2-2-4-----3-----------------|


  Rhy Fig 2
  S         S S S S S S S S S S S E  E
----------------------------------------|
----------------------------------------|
----------------------------------------|
----------------------------------------|
--4---------4-4-4---3-2---4-4-4-4-5--5--|
--2---------2-2-2-4-----3-2-2-2-2-3--3--|


  S S S S S S S S S S S S E  E
--------------------------------|
--------------------------------|
--------------------------------|
--------------------------------|
--4-4-4-4---3-2---4-4-4-4-5--7--|
--2-2-2-2-4-----3-2-2-2-2-3--5--|


  S S S S S S S S S S S S E  E
--------------------------------|
--------------------------------|
--------------------------------|
--------------------------------|
--4-4-4-4---3-2---4-4-4-4-5--5--|
--2-2-2-2-4-----3-2-2-2-2-3--3--|


                               End
  S S S S S S S S  E   E   E   E
----------------------------------|
----------------------------------|
----------------------------------|
------------------14--14--12--12--|
--4-4-4-4---3-2---12--12--10--10--|
--2-2-2-2-4-----3-----------------|


  Rhy Fig 1
  S         S S S  S S S S S S S S  S  S S S
---------------------------------------------|
---------------------------------------------|
---------------------------------------------|
------------------10-9-8---------------------|
-------------------8-7-6-----------11-10-9---|
--0---------0-0-0--------0-0-0-0-0--9--8-7-0-|


                                       End
  S S S S  S S S S  S  S  S S  S  S  S S
-------------------------------------------|
-------------------------------------------|
-------------------------------------------|
----------10-9-8---12-11-10----------------|
-----------8-7-6---10--9--8---12-11-10-----|
--0-0-0-0--------0----------0-10--9--8-0---|


  Rhy Fig 1
  S         S S S  S S S S S S S S  S  S S S
---------------------------------------------|
---------------------------------------------|
---------------------------------------------|
------------------10-9-8---------------------|
-------------------8-7-6-----------11-10-9---|
--0---------0-0-0--------0-0-0-0-0--9--8-7-0-|


                                       End
  S S S S  S S S S  S  S  S S  S  S  S S
-------------------------------------------|
-------------------------------------------|
-------------------------------------------|
----------10-9-8---12-11-10----------------|
-----------8-7-6---10--9--8---12-11-10-----|
--0-0-0-0--------0----------0-10--9--8-0---|


  Rhy Fig 1
  S         S S S  S S S S S S S S  S  S S S
---------------------------------------------|
---------------------------------------------|
---------------------------------------------|
------------------10-9-8---------------------|
-------------------8-7-6-----------11-10-9---|
--0---------0-0-0--------0-0-0-0-0--9--8-7-0-|


                                       End
  S S S S  S S S S  S  S  S S  S  S  S S
-------------------------------------------|
-------------------------------------------|
-------------------------------------------|
----------10-9-8---12-11-10----------------|
-----------8-7-6---10--9--8---12-11-10-----|
--0-0-0-0--------0----------0-10--9--8-0---|


  Rhy Fig 1
  S         S S S  S S S S S S S S  S  S S S
---------------------------------------------|
---------------------------------------------|
---------------------------------------------|
------------------10-9-8---------------------|
-------------------8-7-6-----------11-10-9---|
--0---------0-0-0--------0-0-0-0-0--9--8-7-0-|


                                       End
  S S S S  S S S S  S  S  S S  S  S  S S
-------------------------------------------|
-------------------------------------------|
-------------------------------------------|
----------10-9-8---12-11-10----------------|
-----------8-7-6---10--9--8---12-11-10-----|
--0-0-0-0--------0----------0-10--9--8-0---|


  Rhy Fig 1
  S         S S S  S S S S S S S S  S  S S S
---------------------------------------------|
---------------------------------------------|
---------------------------------------------|
------------------10-9-8---------------------|
-------------------8-7-6-----------11-10-9---|
--0---------0-0-0--------0-0-0-0-0--9--8-7-0-|


                                       End
  S S S S  S S S S  S  S  S S  S  S  S S
-------------------------------------------|
-------------------------------------------|
-------------------------------------------|
----------10-9-8---12-11-10----------------|
-----------8-7-6---10--9--8---12-11-10-----|
--0-0-0-0--------0----------0-10--9--8-0---|


  Rhy Fig 1
  S         S S S  S S S S S S S S  S  S S S
---------------------------------------------|
---------------------------------------------|
---------------------------------------------|
------------------10-9-8---------------------|
-------------------8-7-6-----------11-10-9---|
--0---------0-0-0--------0-0-0-0-0--9--8-7-0-|


                                       End
  S S S S  S S S S  S  S  S S  S  S  S S
-------------------------------------------|
-------------------------------------------|
-------------------------------------------|
----------10-9-8---12-11-10----------------|
-----------8-7-6---10--9--8---12-11-10-----|
--0-0-0-0--------0----------0-10--9--8-0---|


  Rhy Fig 2
  S         S S S S S S S S S S S E  E
----------------------------------------|
----------------------------------------|
----------------------------------------|
----------------------------------------|
--4---------4-4-4---3-2---4-4-4-4-5--5--|
--2---------2-2-2-4-----3-2-2-2-2-3--3--|


  S S S S S S S S S S S S E  E
--------------------------------|
--------------------------------|
--------------------------------|
--------------------------------|
--4-4-4-4---3-2---4-4-4-4-5--7--|
--2-2-2-2-4-----3-2-2-2-2-3--5--|


  S S S S S S S S S S S S E  E
--------------------------------|
--------------------------------|
--------------------------------|
--------------------------------|
--4-4-4-4---3-2---4-4-4-4-5--5--|
--2-2-2-2-4-----3-2-2-2-2-3--3--|


                               End
  S S S S S S S S  E   E   E   E
----------------------------------|
----------------------------------|
----------------------------------|
------------------14--14--12--12--|
--4-4-4-4---3-2---12--12--10--10--|
--2-2-2-2-4-----3-----------------|


  Rhy Fig 2
  S         S S S S S S S S S S S E  E
----------------------------------------|
----------------------------------------|
----------------------------------------|
----------------------------------------|
--4---------4-4-4---3-2---4-4-4-4-5--5--|
--2---------2-2-2-4-----3-2-2-2-2-3--3--|


  S S S S S S S S S S S S E  E
--------------------------------|
--------------------------------|
--------------------------------|
--------------------------------|
--4-4-4-4---3-2---4-4-4-4-5--7--|
--2-2-2-2-4-----3-2-2-2-2-3--5--|


  S S S S S S S S S S S S E  E
--------------------------------|
--------------------------------|
--------------------------------|
--------------------------------|
--4-4-4-4---3-2---4-4-4-4-5--5--|
--2-2-2-2-4-----3-2-2-2-2-3--3--|


                           End
  S S S S S S S S E  E  E  E
-------------------------------|
-------------------------------|
-------------------------------|
-------------------------------|
--4-4-4-4---3-2---7--7--5--5---|
--2-2-2-2-4-----3-5--5--3--3---|


  Rhy Fig 1
  S         S S S  S S S S S S S S  S  S S S
---------------------------------------------|
---------------------------------------------|
---------------------------------------------|
------------------10-9-8---------------------|
-------------------8-7-6-----------11-10-9---|
--0---------0-0-0--------0-0-0-0-0--9--8-7-0-|


                                       End
  S S S S  S S S S  S  S  S S  S  S  S S
-------------------------------------------|
-------------------------------------------|
-------------------------------------------|
----------10-9-8---12-11-10----------------|
-----------8-7-6---10--9--8---12-11-10-----|
--0-0-0-0--------0----------0-10--9--8-0---|


  Rhy Fig 1
  S         S S S  S S S S S S S S  S  S S S
---------------------------------------------|
---------------------------------------------|
---------------------------------------------|
------------------10-9-8---------------------|
-------------------8-7-6-----------11-10-9---|
--0---------0-0-0--------0-0-0-0-0--9--8-7-0-|


                                       End
  S S S S  S S S S  S  S  S S  S  S  S S
-------------------------------------------|
-------------------------------------------|
-------------------------------------------|
----------10-9-8---12-11-10----------------|
-----------8-7-6---10--9--8---12-11-10-----|
--0-0-0-0--------0----------0-10--9--8-0---|


  Rhy Fig 1
  S         S S S  S S S S S S S S  S  S S S
---------------------------------------------|
---------------------------------------------|
---------------------------------------------|
------------------10-9-8---------------------|
-------------------8-7-6-----------11-10-9---|
--0---------0-0-0--------0-0-0-0-0--9--8-7-0-|


                                       End
  S S S S  S S S S  S  S  S S  S  S  S S
-------------------------------------------|
-------------------------------------------|
-------------------------------------------|
----------10-9-8---12-11-10----------------|
-----------8-7-6---10--9--8---12-11-10-----|
--0-0-0-0--------0----------0-10--9--8-0---|


  Rhy Fig 1
  S         S S S  S S S S S S S S  S  S S S
---------------------------------------------|
---------------------------------------------|
---------------------------------------------|
------------------10-9-8---------------------|
-------------------8-7-6-----------11-10-9---|
--0---------0-0-0--------0-0-0-0-0--9--8-7-0-|


                                       End
  S S S S  S S S S  S  S  S S  S  S  S S
-------------------------------------------|
-------------------------------------------|
-------------------------------------------|
----------10-9-8---12-11-10----------------|
-----------8-7-6---10--9--8---12-11-10-----|
--0-0-0-0--------0----------0-10--9--8-0---|


                                                   |---6
   E   E   T  T  T  T  T  T  T  T  T   T   T   T   T   T
---------------------------------------------------------|
--12--12--12-12-12-12-12-12-12-12-13p-12h-13p-12h-13p-12-|
---------------------------------------------------------|
---------------------------------------------------------|
---------------------------------------------------------|
---------------------------------------------------------|


   |-----5-----|                          |--3--|  |--3-
   T  T  T  T  T  T  T  T  T  T  T  T  T  S  S  S  S  S
-----12-------------------------------------------------|
--15----13-12-12-13-15-13-12----------------------------|
-----------------------------14-11-12-11----------------|
-----------------------------------------14-12-14-12----|
-----------------------------------------------------14-|
--------------------------------------------------------|


   Q      S     S S S T T T T E   E  S   S
-------------------------------------------|
-------------------------------------------|
-------------------------------------------|
--14----(14)brb-L-L-L-L-L-L-L-L--14--8S-12-|
-------------------------------------------|
-------------------------------------------|


         |--3--|  |--3--|
   S  S  S  S  S  S  S  S  E   E     E     E.   S
--------------------------------------------------|
--------------------------------------------------|
--------------------------------------------------|
--14-12-------------------------------------------|
--------14-12-14-12-14-12-11--12b--(12)S--10---12-|
--------------------------------------------------|


   S  S  S  S  S  S  S  S  S  S  S  S  S  S  S  S
--------------------------------------------------|
--------------------------------------------------|
--------------------------------------------12----|
--------------------12-------13-12----12-13----13-|
-----13-12----12-13----13-14-------13-------------|
--14-------14-------------------------------------|


   S  S  S  S  S  S  S  S  T   T  S  T   T   T  T  T  T
---------------------------------12----------------------|
--------------------12----12h-13----12h-13p-12----12-----|
-----13-12----12-13----13----------------------13----13--|p
--14-------13--------------------------------------------|
---------------------------------------------------------|
---------------------------------------------------------|


            T      T      T      T      T      T      T
   |--3--|
   S  S  S  T   T  T   T  T   T  T   T  T   T  T   T  T
---------------------------------------------------------|
---------------------------------------------------------|
--12----12-------------------------------------------16--|p
-----14----17p-14-17p-14-17p-14-17p-14-17p-14-17p-14-----|
---------------------------------------------------------|
---------------------------------------------------------|


   T      T      T      T      T      T      T      T
   |------10-----|   |------10-----|  |---12-|   |---12-
   T   T  T   T  T   T  T   T  T   T  T   T  T   T  T
---------------------------------------------------------|
--16p-10-17p-11-17p-11-18p-12-18p-12-18p-12-19p-13-19p-1-|
---------------------------------------------------------|
---------------------------------------------------------|
---------------------------------------------------------|
---------------------------------------------------------|


  S S S S S S S S S S S S S S S S S S S S
------------------------------------------|
------------------------------------------|
----------8-7-----------------------------|
--------9-------------8-7-----------------|
--------------------9-------------7-6-----|
--0-0-0-------0-0-0-------0-0-0-8-----7-6-|


  S S S S S S S S S S S S S S S S S S S S
------------------------------------------|
------------------------------------------|
----------8-7-----------------------------|
--------9-------------8-7-----------------|
--------------------9-------------7-6-----|
--0-0-0-------0-0-0-------0-0-0-8-----7-6-|


  S S S S S S S S S S S S S S S S S S S S
------------------------------------------|
------------------------------------------|
----------8-7-----------------------------|
--------9-------------8-7-----------------|
--------------------9-------------7-6-----|
--0-0-0-------0-0-0-------0-0-0-8-----7-6-|


  S S S S S S S S S S S S S S S S
----------------------------------|
----------------------------------|
----------8-7---------------------|
--------9-------------8-7---------|
--------------------9-------------|
--0-0-0-------0-0-0-------0-0-0-8-|


  S S S S S S S S S S S S S S S S
----------------------------------|
----------------------------6-----|
------------------------6-7---7-6-|
--------------7-6---6-7-----------|
--7-6---6-7-8-----7---------------|
------7---------------------------|


  H.            E  S S
-----------------------|
-----------------------|
--6~------------6------|
-----------------------|
-----------------------|
-------------------3-1-|


  Rhy Fig 4
  E         E  E  E  E  E  E  S S
----------------------------------|
----------------------------------|
----------------------------------|
----------------------------------|
---------------------3------------|
--0---------0--0--0--1--0--0--3-1-|


  E  E  E  E  E  E  E  S S    E  E  E  E  E  E  E  E
---------------------------|--------------------------|
---------------------------|--------------------------|
---------------------------|--------------------------|
---------------------------|--------------------------|
--------------3------------|--------------3-----------|
--0--0--0--0--1--0--0--3-1-|--0--0--0--0--1--0--0--0--|


  E  E  E  E  E  E  E  E     E  E  E  E  E  E  E  S S
--------------------------|---------------------------|
--------------------------|---------------------------|
-----------3-----------6--|---------------------------|
-----5--4--------8--7-----|---------------------------|
--3-----------6-----------|--------------3------------|
--------------------------|--0--0--0--0--1--0--0--3-1-|


  E  E  E  E  E  E  E  S S    E  E  E  E  E  E  E  E
---------------------------|--------------------------|
---------------------------|--------------------------|
---------------------------|--------------------------|
---------------------------|--------------------------|
--------------3------------|--------------3-----------|
--0--0--0--0--1--0--0--3-1-|--0--0--0--0--1--0--0--0--|


  E  E  E  E  E  E  E  E
--------------------------|
--------------------------|
-----------3--------------|
-----5--4--------6--5-----|
--3-----------4--------5--|
--------------------------|


  Rhy Fig 4
  E         E  E  E  E  E  E  S S
----------------------------------|
----------------------------------|
----------------------------------|
----------------------------------|
---------------------3------------|
--0---------0--0--0--1--0--0--3-1-|


  E  E  E  E  E  E  E  S S    E  E  E  E  E  E  E  E
---------------------------|--------------------------|
---------------------------|--------------------------|
---------------------------|--------------------------|
---------------------------|--------------------------|
--------------3------------|--------------3-----------|
--0--0--0--0--1--0--0--3-1-|--0--0--0--0--1--0--0--0--|


  E  E  E  E  E  E  E  E     E  E  E  E  E  E  E  S S
--------------------------|---------------------------|
--------------------------|---------------------------|
-----------3-----------6--|---------------------------|
-----5--4--------8--7-----|---------------------------|
--3-----------6-----------|--------------3------------|
--------------------------|--0--0--0--0--1--0--0--3-1-|


  E  E  E  E  E  E  E  S S    E  E  E  E  E  E  E  E
---------------------------|--------------------------|
---------------------------|--------------------------|
---------------------------|--------------------------|
---------------------------|--------------------------|
--------------3------------|--------------3-----------|
--0--0--0--0--1--0--0--3-1-|--0--0--0--0--1--0--0--0--|


  E  E  E  E  E  E  E  E
--------------------------|
--------------------------|
-----------3--------------|
-----5--4--------6--5-----|
--3-----------4--------5--|
--------------------------|


  Rhy Fig 4
  E         E  E  E  E  E  E  S S
----------------------------------|
----------------------------------|
----------------------------------|
----------------------------------|
---------------------3------------|
--0---------0--0--0--1--0--0--3-1-|


  E  E  E  E  E  E  E  S S    E  E  E  E  E  E  E  E
---------------------------|--------------------------|
---------------------------|--------------------------|
---------------------------|--------------------------|
---------------------------|--------------------------|
--------------3------------|--------------3-----------|
--0--0--0--0--1--0--0--3-1-|--0--0--0--0--1--0--0--0--|


  E  E  E  E  E  E  E  E     E  E  E  E  E  E  E  S S
--------------------------|---------------------------|
--------------------------|---------------------------|
-----------3-----------6--|---------------------------|
-----5--4--------8--7-----|---------------------------|
--3-----------6-----------|--------------3------------|
--------------------------|--0--0--0--0--1--0--0--3-1-|


  E  E  E  E  E  E  E  S S    E  E  E  E  E  E  E  E
---------------------------|--------------------------|
---------------------------|--------------------------|
---------------------------|--------------------------|
---------------------------|--------------------------|
--------------3------------|--------------3-----------|
--0--0--0--0--1--0--0--3-1-|--0--0--0--0--1--0--0--0--|


  E  E  E  E  E  E  E  E
--------------------------|
--------------------------|
-----------3--------------|
-----5--4--------6--5-----|
--3-----------4--------5--|
--------------------------|


  Rhy Fig 4
  E         E  E  E  E  E  E  S S
----------------------------------|
----------------------------------|
----------------------------------|
----------------------------------|
---------------------3------------|
--0---------0--0--0--1--0--0--3-1-|


  E  E  E  E  E  E  E  S S    E  E  E  E  E  E  E  E
---------------------------|--------------------------|
---------------------------|--------------------------|
---------------------------|--------------------------|
---------------------------|--------------------------|
--------------3------------|--------------3-----------|
--0--0--0--0--1--0--0--3-1-|--0--0--0--0--1--0--0--0--|


  E  E  E  E  E  E  E  E     E  E  E  E  E  E  E  S S
--------------------------|---------------------------|
--------------------------|---------------------------|
-----------3-----------6--|---------------------------|
-----5--4--------8--7-----|---------------------------|
--3-----------6-----------|--------------3------------|
--------------------------|--0--0--0--0--1--0--0--3-1-|


  E  E  E  E  E  E  E  S S    E  E  E  E  E  E  E  E
---------------------------|--------------------------|
---------------------------|--------------------------|
---------------------------|--------------------------|
---------------------------|--------------------------|
--------------3------------|--------------3-----------|
--0--0--0--0--1--0--0--3-1-|--0--0--0--0--1--0--0--0--|


  H        H           E  E  E  E  E  E  E  S   S
--------------------|-----------------------------|
--------------------|-----------------------------|
--------------------|-----------------------------|
--------------------|--9--------------------9S-10-|
--3--------6--------|--7-----------7--------7S--8-|
--1--------4--------|-----0--0--0--0--0--0--------|


  E  E  E  E  E  E  E  S   S
-----------------------------|
-----------------------------|
-----------------------------|
--9--------------------9S-10-|
--7-----------7--------7S--8-|
-----0--0--0--0--0--0--------|


  E  E  E  E  E  E  E  S   S
-----------------------------|
-----------------------------|
-----------------------------|
--9--------------------9S-10-|
--7-----------7--------7S--8-|
-----0--0--0--0--0--0--------|


  E  E  E  E  E  E   Q
--------------------------|
--------------------------|
--------------------------|
--9-----------------10----|
--7-----------7------8----|
-----0--0--0--0--0--------|


  E  E  E  E  E  E  E  S   S
-----------------------------|
-----------------------------|
-----------------------------|
--9--------------------9S-10-|
--7-----------7--------7S--8-|
-----0--0--0--0--0--0--------|


  E  E  E  E  E  E  E  S   S
-----------------------------|
-----------------------------|
-----------------------------|
--9--------------------9S-10-|
--7-----------7--------7S--8-|
-----0--0--0--0--0--0--------|


  E  E  E  E  E  E  E  S   S
-----------------------------|
-----------------------------|
-----------------------------|
--9--------------------9S-10-|
--7-----------7--------7S--8-|
-----0--0--0--0--0--0--------|


  E  E  E  E  E  E   Q
--------------------------|
--------------------------|
--------------------------|
--9-----------------10----|
--7-----------7------8----|
-----0--0--0--0--0--------|


  E  E   E  E  E   E   E  E
-----------------------------|
-----------------------------|
--------------------------9--|
-----9--10-----9--10--12-----|
-----------------------------|
--0---------0----------------|


  E  E   E  E  E   E  E   E
------------------------------|
------------------------------|
----------------------9--10~--|
-----9--10-----9--10----------|
------------------------------|
--0---------0-----------------|


  E  E   E  E  E   E   E   E
------------------------------|
------------------------------|
--------------------------10--|
-----9--10-----9--10--12------|
------------------------------|
--0---------0-----------------|


  E  E   E  E  E   E   E   E
------------------------------|
------------------------------|
------------------------------|
-----9--10-----9--10----------|
----------------------10--12--|
--0---------0-----------------|


  E  E   E  E  E   E   E  E
-----------------------------|
-----------------------------|
--------------------------9--|
-----9--10-----9--10--12-----|
-----------------------------|
--0---------0----------------|


  E  E   E  E  E   E  E   E
------------------------------|
------------------------------|
----------------------9--10~--|
-----9--10-----9--10----------|
------------------------------|
--0---------0-----------------|


  E  E   E  E  E   E   E   E
------------------------------|
------------------------------|
--------------------------10--|
-----9--10-----9--10--12------|
------------------------------|
--0---------0-----------------|


  E  E   E  E  E   E   E   E
------------------------------|
------------------------------|
------------------------------|
-----9--10-----9--10----------|
----------------------10--12--|
--0---------0-----------------|


  E  E   E  E  E   E   E  E
-----------------------------|
-----------------------------|
--------------------------9--|
-----9--10-----9--10--12-----|
-----------------------------|
--0---------0----------------|


  E  E   E  E  E   E  E   E
------------------------------|
------------------------------|
----------------------9--10~--|
-----9--10-----9--10----------|
------------------------------|
--0---------0-----------------|


  E  E   E  E  E   E   E   E
------------------------------|
------------------------------|
--------------------------10--|
-----9--10-----9--10--12------|
------------------------------|
--0---------0-----------------|


  E  E   E  E  E   E   E   E
------------------------------|
------------------------------|
------------------------------|
-----9--10-----9--10----------|
----------------------10--12--|
--0---------0-----------------|


  E  E  E  E  E  E   E  E     E  E  E  E  E  E   E  E
---------------------------|---------------------------|
---------------------------|---------------------------|
---------------------------|---------------------------|
--------9-----------10-----|--------9-----------10-----|
-----7-----7-----8------8--|-----7-----7-----8------8--|
--0-----------0------------|--0-----------0------------|


  E  E  E  E  E  E   E  E     E  E  E  E  E  E   E  E
---------------------------|---------------------------|
---------------------------|---------------------------|
---------------------------|---------------------------|
--------9-----------10-----|--------9-----------10-----|
-----7-----7-----8------8--|-----7-----7-----8------8--|
--0-----------0------------|--0-----------0------------|


  E  E  E  E  E  E   E  E     E  E  E  E  E  E   E  E
---------------------------|---------------------------|
---------------------------|---------------------------|
---------------------------|---------------------------|
--------9-----------10-----|--------9-----------10-----|
-----7-----7-----8------8--|-----7-----7-----8------8--|
--0-----------0------------|--0-----------0------------|


  E  E  E  E  E  E   E  E     E  E  E  E  E  E   E  E
---------------------------|---------------------------|
---------------------------|---------------------------|
---------------------------|---------------------------|
--------9-----------10-----|--------9-----------10-----|
-----7-----7-----8------8--|-----7-----7-----8------8--|
--0-----------0------------|--0-----------0------------|


  Q    Q     Q     Q       Q    Q     Q     Q
------------------------|------------------------|
------------------------|------------------------|
------------------------|------------------------|
--9----9----10----10----|--9----9----10----10----|
--7----7-----8-----8----|--7----7-----8-----8----|
------------------------|------------------------|


  Q    Q     Q     Q       Q    Q     Q     Q
------------------------|------------------------|
------------------------|------------------------|
------------------------|------------------------|
--9----9----10----10----|--9----9----10----10----|
--7----7-----8-----8----|--7----7-----8-----8----|
------------------------|------------------------|


  S S S S S S S S S S S S S S S S
----------------------------------|
----------------------------------|
----------------------------------|
----------------------------------|
--7-7-7-7-7-7-7-7-8-8-8-8-8-8-8-8-|
----------------------------------|


  S S S S S S S S S S S S S S S S
----------------------------------|
----------------------------------|
----------------------------------|
----------------------------------|
--7-7-7-7-7-7-7-7-8-8-8-8-8-8-8-8-|
----------------------------------|


  S S S S S S S S S S S S S S S S
----------------------------------|
----------------------------------|
----------------------------------|
----------------------------------|
--7-7-7-7-7-7-7-7-8-8-8-8-8-8-8-8-|
----------------------------------|


  S S S S S S S S S S S S S S S S
----------------------------------|
----------------------------------|
----------------------------------|
----------------------------------|
--7-7-7-7-7-7-7-7-8-8-8-8-8-8-8-8-|
----------------------------------|


  E  S S E  S S E  E  E  E
----------------------------|
----------------------------|
----------------------------|
----------------------------|
--4------4------4--5--4-----|
--2--0-0-2--0-0-2--3--2--0--|


  E  S S E  S S E  E  E  E
----------------------------|
----------------------------|
----------------------------|
----------------------------|
--4------4------4--5--4-----|
--2--0-0-2--0-0-2--3--2--0--|


  E  S S E  S S E  E  E  E
----------------------------|
----------------------------|
----------------------------|
----------------------------|
--4------4------4--5--4-----|
--2--0-0-2--0-0-2--3--2--0--|


  E  S S E  S S E  S S Q
----------------------------|
----------------------------|
----------------------------|
----------------------------|
--4------4------4------3----|
--2--0-0-2--0-0-2--0-0-1----|


  E  S S E  S S E  E  E  E
----------------------------|
----------------------------|
----------------------------|
----------------------------|
--4------4------4--5--4-----|
--2--0-0-2--0-0-2--3--2--0--|


  E  S S E  S S E  E  E  E
----------------------------|
----------------------------|
----------------------------|
----------------------------|
--4------4------4--5--4-----|
--2--0-0-2--0-0-2--3--2--0--|


  E  S S E  S S E  E  E  E
----------------------------|
----------------------------|
----------------------------|
----------------------------|
--4------4------4--5--4-----|
--2--0-0-2--0-0-2--3--2--0--|


  E  S S E  S S E  S S Q
----------------------------|
----------------------------|
----------------------------|
----------------------------|
--4------4------4------3----|
--2--0-0-2--0-0-2--0-0-1----|


  E  S S E  S S E  E  E  E
----------------------------|
----------------------------|
----------------------------|
----------------------------|
--4------4------4--5--4-----|
--2--0-0-2--0-0-2--3--2--0--|


  E  S S E  S S E  E  E  E
----------------------------|
----------------------------|
----------------------------|
----------------------------|
--4------4------4--5--4-----|
--2--0-0-2--0-0-2--3--2--0--|


  E  S S E  S S E  E  E  E
----------------------------|
----------------------------|
----------------------------|
----------------------------|
--4------4------4--5--4-----|
--2--0-0-2--0-0-2--3--2--0--|


  E  S S E  S S E  S S Q
----------------------------|
----------------------------|
----------------------------|
----------------------------|
--4------4------4------3----|
--2--0-0-2--0-0-2--0-0-1----|


  E  S S E  S S E  E  E  E
----------------------------|
----------------------------|
----------------------------|
----------------------------|
--4------4------4--5--4-----|
--2--0-0-2--0-0-2--3--2--0--|


  E  S S E  S S E  E  E  E
----------------------------|
----------------------------|
----------------------------|
----------------------------|
--4------4------4--5--4-----|
--2--0-0-2--0-0-2--3--2--0--|


  E  S S E  S S E  E  E  E
----------------------------|
----------------------------|
----------------------------|
----------------------------|
--4------4------4--5--4-----|
--2--0-0-2--0-0-2--3--2--0--|


  E  S S E  S S E  S S Q
----------------------------|
----------------------------|
----------------------------|
-----------------------7----|
--4------4------4------5----|
--2--0-0-2--0-0-2--0-0------|


  E  S S E  S S E  S S E   E
------------------------------|
------------------------------|
------------------------------|
--9------9------9------9--12--|
--7------7------7------7--10--|
-----0-0----0-0----0-0--------|


  E  S S E  S S E  S S E   E
------------------------------|
------------------------------|
------------------------------|
--9------9------9------9--11--|
--7------7------7------7---9--|
-----0-0----0-0----0-0--------|


  E  S S E  S S E  S S E   E
------------------------------|
------------------------------|
------------------------------|
--9------9------9------9--10--|
--7------7------7------7---8--|
-----0-0----0-0----0-0--------|


  E  E  E  E  E  E  E  E
--------------------------|
--------------------------|
--------------------------|
--9--8-----8--7-----7--6--|
--7--6--8--6--5--7--5--4--|
--------6--------5--------|


  E  S S E  S S E  S S E   E
------------------------------|
------------------------------|
------------------------------|
--9------9------9------9--12--|
--7------7------7------7--10--|
-----0-0----0-0----0-0--------|


  E  S S E  S S E  S S E   E
------------------------------|
------------------------------|
------------------------------|
--9------9------9------9--11--|
--7------7------7------7---9--|
-----0-0----0-0----0-0--------|


  E  S S E  S S E  S S E   E
------------------------------|
------------------------------|
------------------------------|
--9------9------9------9--10--|
--7------7------7------7---8--|
-----0-0----0-0----0-0--------|


  E  E  E  E  E  E  E  E
--------------------------|
--------------------------|
--------------------------|
--9--8-----8--7-----7--6--|
--7--6--8--6--5--7--5--4--|
--------6--------5--------|


  E  S S E  S S E  S S E   E
------------------------------|
------------------------------|
------------------------------|
--9------9------9------9--12--|
--7------7------7------7--10--|
-----0-0----0-0----0-0--------|


  E  S S E  S S E  S S E   E
------------------------------|
------------------------------|
------------------------------|
--9------9------9------9--11--|
--7------7------7------7---9--|
-----0-0----0-0----0-0--------|


  E  S S E  S S E  S S E   E
------------------------------|
------------------------------|
------------------------------|
--9------9------9------9--10--|
--7------7------7------7---8--|
-----0-0----0-0----0-0--------|


  E  E  E  E  E  E  E  E
--------------------------|
--------------------------|
--------------------------|
--9--8-----8--7-----7--6--|
--7--6--8--6--5--7--5--4--|
--------6--------5--------|


  E  S S E  S S E  S S E   E
------------------------------|
------------------------------|
------------------------------|
--9------9------9------9--12--|
--7------7------7------7--10--|
-----0-0----0-0----0-0--------|


  E  S S E  S S E  S S E   E
------------------------------|
------------------------------|
------------------------------|
--9------9------9------9--11--|
--7------7------7------7---9--|
-----0-0----0-0----0-0--------|


  E  S S E  S S E  S S E   E
------------------------------|
------------------------------|
------------------------------|
--9------9------9------9--10--|
--7------7------7------7---8--|
-----0-0----0-0----0-0--------|


  E  E  E  E  E  E  E  E     E  S S E  S S E  E  E  E
--------------------------|----------------------------|
--------------------------|----------------------------|
--------------------------|----------------------------|
--9--8-----8--7-----7--6--|----------------------------|
--7--6--8--6--5--7--5--4--|--4------4------4--5--4-----|
--------6--------5--------|--2--0-0-2--0-0-2--3--2--0--|


  E  S S E  S S E  E  E  E
----------------------------|
----------------------------|
----------------------------|
----------------------------|
--4------4------4--5--4-----|
--2--0-0-2--0-0-2--3--2--0--|


  E  S S E  S S E  E  E  E
----------------------------|
----------------------------|
----------------------------|
----------------------------|
--4------4------4--5--4-----|
--2--0-0-2--0-0-2--3--2--0--|


  E  S S E  S S E  S S Q
----------------------------|
----------------------------|
----------------------------|
----------------------------|
--4------4------4------3----|
--2--0-0-2--0-0-2--0-0-1----|


  E  S S E  S S E  E  E  E
----------------------------|
----------------------------|
----------------------------|
----------------------------|
--4------4------4--5--4-----|
--2--0-0-2--0-0-2--3--2--0--|


  E  S S E  S S E  E  E  E
----------------------------|
----------------------------|
----------------------------|
----------------------------|
--4------4------4--5--4-----|
--2--0-0-2--0-0-2--3--2--0--|


  E  S S E  S S E  E  E  E
----------------------------|
----------------------------|
----------------------------|
----------------------------|
--4------4------4--5--4-----|
--2--0-0-2--0-0-2--3--2--0--|


  E  S S E  S S E  S S Q
----------------------------|
----------------------------|
----------------------------|
----------------------------|
--4------4------4------3----|
--2--0-0-2--0-0-2--0-0-1----|


  E  S S E  S S E  E  E  E
----------------------------|
----------------------------|
----------------------------|
----------------------------|
--4------4------4--5--4-----|
--2--0-0-2--0-0-2--3--2--0--|


  E  S S E  S S E  E  E  E
----------------------------|
----------------------------|
----------------------------|
----------------------------|
--4------4------4--5--4-----|
--2--0-0-2--0-0-2--3--2--0--|


  E  S S E  S S E  E  E  E
----------------------------|
----------------------------|
----------------------------|
----------------------------|
--4------4------4--5--4-----|
--2--0-0-2--0-0-2--3--2--0--|


  E  S S E  S S E  S S Q
----------------------------|
----------------------------|
----------------------------|
----------------------------|
--4------4------4------3----|
--2--0-0-2--0-0-2--0-0-1----|


  E  S S E  S S E  E  E  E
----------------------------|
----------------------------|
----------------------------|
----------------------------|
--4------4------4--5--4-----|
--2--0-0-2--0-0-2--3--2--0--|


  E  S S E  S S E  E  E  E
----------------------------|
----------------------------|
----------------------------|
----------------------------|
--4------4------4--5--4-----|
--2--0-0-2--0-0-2--3--2--0--|


  E  S S E  S S E  E  E  E
----------------------------|
----------------------------|
----------------------------|
----------------------------|
--4------4------4--5--4-----|
--2--0-0-2--0-0-2--3--2--0--|


  E  S S E  S S E  E  E  E     E  E  E  E  E  E  E  E
----------------------------|--------------------------|
----------------------------|--------------------------|
----------------------------|--------------------------|
----------------------------|--8--7-----7--6-----6--5--|
--4------4------4--5--4-----|--6--5--7--5--4--6--4--3--|
--2--0-0-2--0-0-2--3--2--0--|--------5--------4--------|


  E  S S E  S S E  E  E  E
----------------------------|
----------------------------|
----------------------------|
----------------------------|
--4------4------4--5--4-----|
--2--0-0-2--0-0-2--3--2--0--|


  E  S S E  S S E  E  E  E
----------------------------|
----------------------------|
----------------------------|
----------------------------|
--4------4------4--5--4-----|
--2--0-0-2--0-0-2--3--2--0--|


  E  S S E  S S E  E  E  E     E  E  E  E  E  E  E  E
----------------------------|--------------------------|
----------------------------|--------------------------|
----------------------------|--------------------------|
----------------------------|--8--7-----7--6-----6--5--|
--4------4------4--5--4-----|--6--5--7--5--4--6--4--3--|
--2--0-0-2--0-0-2--3--2--0--|--------5--------4--------|


    E  S S E  S S E  E  E  E
|-----------------------------|
|-----------------------------|
|*----------------------------|
|*----------------------------|
|---4------4------4--5--4-----|
|---2--0-0-2--0-0-2--3--2--0--|


  E  E  E  E  E  E  E  E   3x  E  E  E  E  E  E  E  E
---------------------------||--------------------------|
---------------------------||--------------------------|
--------------------------*||--------------------------|
--8--7-----7--6-----6--5--*||--8--7-----7--6-----6--5--|
--6--5--7--5--4--6--4--3---||--6--5--7--5--4--6--4--3--|
--------5--------4---------||--------5--------4--------|


  W                   W
-------------------|-------------------|
-------------------|-------------------|
-------------------|-------------------|
-------------------|-------------------|
-------------------|-------------------|
-------------------|-------------------|


-------------------|-------------------|
-------------------|-------------------|
-------------------|-------------------|
-------------------|-------------------|
-------------------|-------------------|
-------------------|-------------------|


-------------------|-------------------|
-------------------|-------------------|
-------------------|-------------------|
-------------------|-------------------|
-------------------|-------------------|
-------------------|-------------------|


-------------------|
-------------------|
-------------------|
-------------------|
-------------------|
-------------------|


  Rhy Fig 1
  S         S S S  S S S S S S S S  S  S S S
---------------------------------------------|
---------------------------------------------|
---------------------------------------------|
------------------10-9-8---------------------|
-------------------8-7-6-----------11-10-9---|
--0---------0-0-0--------0-0-0-0-0--9--8-7-0-|


                                       End
  S S S S  S S S S  S  S  S S  S  S  S S
-------------------------------------------|
-------------------------------------------|
-------------------------------------------|
----------10-9-8---12-11-10----------------|
-----------8-7-6---10--9--8---12-11-10-----|
--0-0-0-0--------0----------0-10--9--8-0---|


  Rhy Fig 1
  S         S S S  S S S S S S S S  S  S S S
---------------------------------------------|
---------------------------------------------|
---------------------------------------------|
------------------10-9-8---------------------|
-------------------8-7-6-----------11-10-9---|
--0---------0-0-0--------0-0-0-0-0--9--8-7-0-|


  S S S S  S S S S  S  S  S S S S E
-------------------------------------|-----||
-------------------------------------|-----||
-------------------------------------|-----||
----------10-9-8---12-11-10----------|-----||
-----------8-7-6---10--9--8---5-4-2--|-----||
--0-0-0-0--------0----------0-3-2-0--|-----||

Duration Legend
---------------
W - whole
H - half
Q - quarter
E - 8th
S - 16th
T - 32nd
X - 64th
. - note dotted
|-n-|  - n-tuplets


Tablature Legend
----------------
L - tied note
x - dead note
g - grace note
(n) - ghost note
> - accentuded note
NH - natural harmonic
AH - artificial harmonic
TH - tapped harmonic
SH - semi harmonic
PH - pitch harmonic
h - hammer on
p - pull off
b - bend
br - bendRelease
pb - preBend
pbr - preBendRelease
brb - bendReleaseBend
\n/ - tremolo bar dip
\n - tremolo bar dive
-/n - tremolo bar Release up
/n\ - tremolo bar inverted dip
/n - tremolo bar return
-\n - tremolo bar Release down
S - shift slide
s - legato slide
/ -  slide into from below or out of upwards
\ -  slide into from above or out of downwards
~ - vibrato
W - wide vibrato
tr - trill
TP - tremolo picking
T - tapping
S - slap
P - pop
< - fade in
^ - brush up
v - brush down

            
            
Suggest correction
Creating personal tab
Creating personal tab
You can edit any tab online and save it as your Personal.

You can edit, replace or remove any tab part or add personal notes – all changes will be seen only by you.

Personal tabs can be accessed anytime from any device, even offline.
Learn more »
comments
print report bad tab
1 comment total.
+2 reply
pantallica13 10 Jan 01, 2012 07:14 AM

Sorry, but i don't think Slayer tune to C standard. This is down a half step

guest
You may want to rate the tab now too:
select rating
Wanna post a correction for this tab? Suggest correction