Oops, an error
Loading. Please wait.

Black Serenade tab

version 1
version 1

Whole song

Interactive

by Slayer
3,413 views 1 this week
no commentswrite comment
1 2 3 4 5
2 more votes to show rating
add to favorites
×
Save as Personal and add changes to this tab that will be seen only by you. Learn more ›
×
You can save this tab as Personal to edit and correct it or add notes. All changes will be seen only by you. Learn more »
launch autoscroll
font size
0
reset
how to read this tab
guitar tuner
edit
Autoscroll
slow
fast
+/-
esc
set tempo
stop
#----------------------------------PLEASE NOTE---------------------------------#
#This file is the author's own work and represents their interpretation of the #
#song. You may only use this file for private study, scholarship, or research. #
#------------------------------------------------------------------------------#

BLACK SERENADE
As recorded by Slayer
(From the 2006 Album CHRIST ILLUSION)

Transcribed by ENCODER-M. Yuksel
        

Words and Music by Tom Araya,Jeff Hanneman,Kerry King and Dave Lombardo
Arranged by Tom Araya,Jeff Hanneman,Kerry King and Dave Lombardo

Gtr I (Db Gb B E Ab Db) - 'Gtr 1'
Gtr II (Db Gb B E Ab Db) - 'Gtr 2'
Gtr III (Db Gb B E Ab Db) - 'Jeff Hanneman'
Gtr IV (Db Gb B E Ab Db) - 'Fill guitar'
Gtr V (Db Gb B E Ab Db) - 'Kerry King'

   Verse
    Fast Q=200
    $
    N.C.
   4/4
    Gtrs I, II
    PM----|                PM----|                PM----|
            |-3-| |-3--|           |-3-| |-3--|           |-3-| |-3--|
    E E E E E E E E  E E   E E E E E E E E  E E   E E E E E E E E  E E
||-----------------------|----------------------|-----------------------|
||o----------------------|----------------------|-----------------------|
||-----------------------|----------------------|-----------------------|
||-----------------------|----------------------|-----------------------|
||o---------7h8p7-8h10p8-|---------7h8p7-8h10p8-|---------7h8p7-8h10p8--|
||--0-0-0-0--------------|-0-0-0-0--------------|-0-0-0-0---------------|


  PM----|                PM----|
          |-3-| |-3--|           |-3-| |-3--|
  E E E E E E E E  E E   E E E E E E E E  E E
|----------------------|----------------------|
|----------------------|----------------------|
|----------------------|----------------------|
|----------------------|----------------------|
|---------7h8p7-8h10p8-|---------7h8p7-8h10p8-|
|-0-0-0-0--------------|-0-0-0-0--------------|


  PM----|                PM----|
          |-3-| |-3--|           |-3-| |-3--|
  E E E E E E E E  E E   E E E E E E E E  E E
|----------------------|----------------------|
|----------------------|----------------------|
|----------------------|----------------------|
|----------------------|----------------------|
|---------7h8p7-8h10p8-|---------7h8p7-8h10p8-|
|-0-0-0-0--------------|-0-0-0-0--------------|


                              F#5     C#5      C5         G#5   A5
  PM----|
          |-3-| |--3---|
  E E E E E E E E  E  +E      E E E E  E  E  E  E    E  E E E E E E E
|--------------------------||---------------------|---------------------|
|--------------------------||---------------------|---------------------|
|--------------------------||---------------------|---------------------|
|--------------------------||---------------------|---------------------|
|---------7h8p7-8h10-(10)\-||-4-4-4-4S11-11-11-10-|-10-10-6-6-6-7-7-7\--|
|-0-0-0-0------------------||-2-2-2-2S=9--9--9--8-|--8--8-4-4-4-5-5-5\--|


                                    To Coda
  F#5     C#5      C5         G#5   A5
  E E E E  E  E  E  E    E  E E E E E E E
|---------------------|--------------------|
|---------------------|--------------------|
|---------------------|--------------------|
|---------------------|--------------------|
|-4-4-4-4S11-11-11-10-|-10-10S6-6-6-7-7-7\-|
|-2-2-2-2S=9--9--9--8-|--8--8S4-4-4-5-5-5\-|


 1.
  F#5     C#5      C5         G#5   A5
  E E E E  E  E  E  E    E  E E E E E E E
|---------------------|--------------------||
|---------------------|-------------------o||
|---------------------|--------------------||
|---------------------|--------------------||
|-4-4-4-4S11-11-11-10-|-10-10S6-6-6-7-7-7-o||
|-2-2-2-2S=9--9--9--8-|--8--8S4-4-4-5-5-5--||


  2.
                                                          D.S. al Coda
  F#5     C#5      C5         G#5   A5       N.C.
                                                                    ~
  E E E E  E  E  E  E    E  E E E E E E E    Q  Q  Q  Q    Q  Q  Q  Q
|---------------------|--------------------|-------------|-------------|
|---------------------|--------------------|-------------|-------------|
|---------------------|--------------------|-------------|-------------|
|---------------------|--------------------|-------------|-------------|
|-4-4-4-4S11-11-11-10-|-10-10S6-6-6-7-7-7\-|----4--3-----|----5--------|
|-2-2-2-2S=9--9--9--8-|--8--8S4-4-4-5-5-5\-|-2--------4--|-1-----6--5--|


 Chorus
  &
  F#5     C#5      C5         G#5   A5
  Gtrs I, II
  E E E E  E  E  E  E    E  E E E E E E E
|---------------------|--------------------|
|---------------------|--------------------|
|---------------------|--------------------|
|---------------------|--------------------|
|-4-4-4-4S11-11-11-10-|-10-10S6-6-6-7-7-7\-|
|-2-2-2-2S=9--9--9--8-|--8--8S4-4-4-5-5-5\-|


  F#5     C#5      C5         G#5   A5
  E E E E  E  E  E  E    E  E E E E E E E
|---------------------|--------------------|
|---------------------|--------------------|
|---------------------|--------------------|
|---------------------|--------------------|
|-4-4-4-4S11-11-11-10-|-10-10S6-6-6-7-7-7\-|
|-2-2-2-2S=9--9--9--8-|--8--8S4-4-4-5-5-5\-|


  F#5     C#5      C5         G#5   A5
  E E E E  E  E  E  E    E  E E E E E E E
|---------------------|--------------------|
|---------------------|--------------------|
|---------------------|--------------------|
|---------------------|--------------------|
|-4-4-4-4S11-11-11-10-|-10-10S6-6-6-7-7-7\-|
|-2-2-2-2S=9--9--9--8-|--8--8S4-4-4-5-5-5\-|


  F#5     C#5      C5         G#5   A5
  E E E E  E  E  E  E    E  E E E E E E E
|---------------------|-------------------||
|---------------------|-------------------||
|---------------------|-------------------||
|---------------------|-------------------||
|-4-4-4-4S11-11-11-10-|-10-10S6-6-6-7-7-7-||
|-2-2-2-2S=9--9--9--8-|--8--8S4-4-4-5-5-5-||


 Verse
  N.C.
  PM----|                PM----|
          |-3-| |-3--|           |-3-| |-3--|
  E E E E E E E E  E E   E E E E E E E E  E E
|----------------------|----------------------|
|----------------------|----------------------|
|----------------------|----------------------|
|----------------------|----------------------|
|---------7h8p7-8h10p8-|---------7h8p7-8h10p8-|
|-0-0-0-0--------------|-0-0-0-0--------------|


  PM----|                PM----|
          |-3-| |-3--|           |-3-| |-3--|
  E E E E E E E E  E E   E E E E E E E E  E E
|----------------------|-----------------------|
|----------------------|-----------------------|
|----------------------|-----------------------|
|----------------------|-----------------------|
|---------7h8p7-8h10p8-|---------7h8p7-8h10p8--|
|-0-0-0-0--------------|-0-0-0-0---------------|


  PM----|                PM----|
          |-3-| |-3--|           |-3-| |-3--|
  E E E E E E E E  E E   E E E E E E E E  E E
|----------------------|----------------------|
|----------------------|----------------------|
|----------------------|----------------------|
|----------------------|----------------------|
|---------7h8p7-8h10p8-|---------7h8p7-8h10p8-|
|-0-0-0-0--------------|-0-0-0-0--------------|
|
| Gtr III
| W                      W
|----------------------|----------------------|
|----------------------|----------------------|
|----------------------|----------------------|
|----------------------|----------------------|
|----------------------|----------------------|
|----------------------|----------------------|


  PM------|                     PM-------|
             |-3--|  |--3--|                |-3--|  |---3---|
  E  E  E E  E  E E  E   E E    E  E  E  E  E  E E  E   E  +E
|----------------------------|-----------------------------------||
|----------------------------|-----------------------------------||
|----------------------------|-----------------------------------||
|----------------------------|-----------------------------------||
|------------7h=8p7--8h=10p8-|--------------7h=8p7--8h=10-(10)\--||
|-0--0--0-0------------------|--0--0--0--0-----------------------||
|
|    <
| E  Q.     +Q      +Q         +Q    +Q    +Q      +Q
|----------------------------|-----------------------------------||
|----------------------------|-----------------------------------||
|---[x]-----(x)-----(x)------|-(x)---(x)---(x)-----(x)-----------||
|----------------------------|-----------------------------------||
|----------------------------|-----------------------------------||
|----------------------------|-----------------------------------||


 Guitar Solo
  N.C.
  Gtr III
                                   ~~~~
   Q.              +E     E       +Q.
|-20b21-----------(20)---20b21---(20)-----------|
|-20b22-----------(20)---20b22---(20)-----------|
|-----------------------------------------------|
|-----------------------------------------------|
|-----------------------------------------------|
|-----------------------------------------------|
|
| Gtrs I, II
|  PM--------------------------------------------
|  S    S S S S S   S  S  S    S   S  S S S S S
|-----------------------------------------------|
|-----------------------------------------------|
|-----------------------------------------------|
|-----------------------------------------------|
|-----------------------------------------------|
|--2----2-2-2-2-2---2--2--2----2---2--2-2-2-0-0-|


            ~~~~
   E       +Q.            E        +E     +S   S  S  S
|-20b21---(20)-----------20b21====(20)r==(20)-18-21-18-|
|-20b22---(20)-----------20b23====(20)r==(20)----------|
|------------------------------------------------------|
|------------------------------------------------------|
|------------------------------------------------------|
|------------------------------------------------------|
|
|---------------------------------------------------|
|  S    S   S  S S S S S  S     S   S  S   S   S  S  S
|------------------------------------------------------|
|------------------------------------------------------|
|------------------------------------------------------|
|------------------------------------------------------|
|------------------------------------------------------|
|--1----1---1--1-1-1-1-1--1-----1---1--1---1---1--0--0-|


   S  S  S  S  E    S  S  S  S  S  S  S  S  S  S
|-19-19-22-22-18S==13-13-14-16-16-14-13----------|
|---------------------------------------16-15-15-|
|------------------------------------------------|
|------------------------------------------------|
|------------------------------------------------|
|------------------------------------------------|
|
|  PM---------------------------------------------
|  S  S  S  S  S S  S  S  S  S  S  S  S  S  E
|------------------------------------------------|
|------------------------------------------------|
|------------------------------------------------|
|------------------------------------------------|
|------------------------------------------------|
|--2--2--2--2--2-2--0--0--2--2--2--2--2--2--3S===|


   S  S  S  S  S  S  S  S  E    S  S  S  S  S   S
|----13-13----------------------------------------|
|-16-------16-15-13------------13-13--------------|
|-------------------14-14-15---------15-14-15--14-|
|-------------------------------------------------|
|-------------------------------------------------|
|-------------------------------------------------|
|
|------------------------------------------|
|  S  S  S  S  S  S  S  S  S S  S  S  S  S  E
|-------------------------------------------------|
|-------------------------------------------------|
|-------------------------------------------------|
|-------------------------------------------------|
|-------------------------------------------------|
|--6--6--6--6--6--6--6--6--6-6--6--6--6--6--6\----|


             ~~~~                           ~~~
   Q        +H                 S  S  E      H.                       S  S  S  S
|----------------------------------------|--------------------------------------|
|----------------------------------------|--------------------------------------|
|-12-------(12)---------------14h15p14---|-11--------------------------11-11-11-|
|----------------------------------------|--------------------------------------|
|----------------------------------------|--------------------------------------|
|----------------------------------------|--------------------------------------|
|
|  PM----------------------------------------------------------------------------
|  S S S S   S  S S S S S S S  S  S  S S    S  S S S S S S S S S S S S  S  S  S
|----------------------------------------|--------------------------------------|
|----------------------------------------|--------------------------------------|
|----------------------------------------|--------------------------------------|
|----------------------------------------|--------------------------------------|
|----------------------------------------|--------------------------------------|
|--2-2-2-2---2--2-2-2-2-2-2-2--2--2--0-0-|--1--1-1-1-1-1-1-1-1-1-1-1-1--1--0--0-|


   S  S  S  S  S  S  S  S  S  S  S  S  S  S  S  S
|--------------------------------------------------|
|--------------------------------------------------|
|-12-12-14-14-11-12-12-14-14-14-12-11--------------|
|-------------------------------------14-14-12-11h=|
|--------------------------------------------------|
|--------------------------------------------------|
|
|-------------------------------------------|
|  S  S  S  S  S  S  S  S  S  S  S  S  S  S  E
|--------------------------------------------------|
|--------------------------------------------------|
|--------------------------------------------------|
|--------------------------------------------------|
|--------------------------------------------------|
|--2--2--2--2--2--2--0--0--2--2--2--2--2--2--3S====|


                                                 TP
   S  S  S  S  S  S  S  S  Q        +E    E      W
|--------------------------------------------|-----------------------------------|
|--------------------------------------------|-----------------------------------|
|--------------------------------------------|-----------------------------------|
|-12h14-14-14-12-12-11-11--------------------|-/12-------------------------------|
|-------------------------12-------(12)s==0--|-----------------------------------|
|--------------------------------------------|-----------------------------------|
|
|  PM-----------------------------------------------------------------------------
|  S  S  S  S  S  S  S  S  S S S S   S  S E      S S S S S S S S S S S S S S S S
|--------------------------------------------|-----------------------------------|
|--------------------------------------------|-----------------------------------|
|--------------------------------------------|-----------------------------------|
|--------------------------------------------|-----------------------------------|
|--------------------------------------------|-----------------------------------|
|--6--6--6--6--6--6--6--6--6-6-6-6---6--6-6\-|---2-2-2-2-2-2-2-2-2-2-2-2-2-2-0-0-|


             ~~~~~~~~~~~~~~~~~~~~~
   Q        +Q         +E     +E     e   E
|---------------------------------------------|
|---------------------------------------------|
|---------------------------------------------|
|-11-------(11)-------(11)---(11)---14--------|
|---------------------------------------------|
|---------------------------------------------|
|
|------------------------------------------|
|  S S S S   S  S S S   S  S   S  S  S S S S
|---------------------------------------------|
|---------------------------------------------|
|---------------------------------------------|
|---------------------------------------------|
|---------------------------------------------|
|--1-1-1-1---1--1-1-1---1--1---1--1--1-1-0-0--|


   |----3----|                           |----3----|
   E    E    E    E    S  S  S  S  S  S  E    E    E
|----------------------------------------------------|
|----------------------------------------------------|
|-13h==14p==13--------13-14-14-16-16-13-14---13---13-|
|----------------16----------------------------------|
|----------------------------------------------------|
|----------------------------------------------------|
|
|  PM-------------------------------------------------
|  S S    S    S  S S  S  S  S  S  S  S  S S    E
|----------------------------------------------------|
|----------------------------------------------------|
|----------------------------------------------------|
|----------------------------------------------------|
|----------------------------------------------------|
|--2-2----2----2--2-2--0--0--2--2--2--2--2-2----3S===|


   S  S  S  S  S  S  S  S  S  E.    Q
|-----------------------------------------|
|-----------------------------------------|
|-14-14-16-16-14-14S13-13S11-11S====5S====|
|-----------------------------------------|
|-----------------------------------------|
|-----------------------------------------|
|
|---------------------------------------|
|  S  S  S  S  S  S  S  S  S  S S S S S E
|-----------------------------------------|
|-----------------------------------------|
|-----------------------------------------|
|-----------------------------------------|
|-----------------------------------------|
|--6--6--6--6--6--6--6--6--6--6-6-6-6-6-6-|


          ~~~~~~~~~~~~~~~~~~~~~~~~~~~~~~~
   S     +E.      +H                 +E     S  S
|------------------------------------------------|
|------------------------------------------14-14-|
|-15b16-(15)-----(15)---------------(15)---------|
|------------------------------------------------|
|------------------------------------------------|
|------------------------------------------------|
|
|  PM---------------------------------------------
|  S      S  S S   S  S S S S S S S   S  S  S  S
|------------------------------------------------|
|------------------------------------------------|
|------------------------------------------------|
|------------------------------------------------|
|------------------------------------------------|
|--5------5--5-5---5--5-5-5-5-5-5-5---5--5--5--5-|


   S  S  S  S  S  S  S  S  S  S  S  S  S  S  S  S
|----------------17-14h15p14h15-15-14-------------|
|-15-17-14-15-17----------------------17-17-14-15-|
|-------------------------------------------------|
|-------------------------------------------------|
|-------------------------------------------------|
|-------------------------------------------------|
|
|----------------------------------------------|
|  S  S  S  S  S  S  S  S  S  S  S  S  S  S  S  S
|-------------------------------------------------|
|-------------------------------------------------|
|-------------------------------------------------|
|-------------------------------------------------|
|-------------------------------------------------|
|--4--4--4--4--4--4--4--4--4--4--4--4--4--4--4--4-|


   S  S  S  S  S  S  S  S  S  S  S  S  S  S  S  S
|-------------------------20-17-18-17-18-17-------|
|-17-17-18-18-17-17-18-20-------------------20-20-|
|-------------------------------------------------|
|-------------------------------------------------|
|-------------------------------------------------|
|-------------------------------------------------|
|
|  PM----------------------------------------------
|  S  S  S  S  S  S  S  S  S  S  S  S  S  S  E
|-------------------------------------------------|
|-------------------------------------------------|
|-------------------------------------------------|
|-------------------------------------------------|
|-------------------------------------------------|
|--5--5--5--5--5--5--4--4--5--5--5--5--5--5--5S===|


   S  S  S  S  S  S  S  S  S  S  S  S  E.  S
|--------------------------------------------||
|-17-18-21-21-17-18-20-20-18-18-17-17--------||
|-------------------------------------19--17-||
|--------------------------------------------||
|--------------------------------------------||
|--------------------------------------------||
|
|-------------------------------------|
|  S  S  S  S  S  S  S  S  S  S  S  S  Q
|--------------------------------------------||
|--------------------------------------------||
|--------------------------------------------||
|--------------------------------------------||
|--------------------------------------------||
|--8--8--8--8--8--8--8--8--8--8--8--8--8\----||


 Chorus
  F5 E5           F5       E5
   Q    +Q         +H
|----------------------------|
|-19---(19)b20====(19)-------|
|-19---(19)b21====(19)-------|
|----------------------------|
|----------------------------|
|----------------------------|
|
|  PM-------------------------
|  E E   E      E   E  E E E
|----------------------------|
|----------------------------|
|----------------------------|
|----------------------------|
|--3-2----------2---3----3-2-|
|--1-0----------0---1----1-0-|


                F5       E5     F5   E5    F5    E5
                                       ~
   +E       +Q.      +H          +Q    Q   H
|-----------------------------|--------------------|
|-(19)b21==(19)-----(19)r=====|=(19)---------------|
|-(19)b22==(19)-----(19)r=====|=(19)---x-----------|
|-----------------------------|--------x-----------|
|-----------------------------|--------------------|
|-----------------------------|--------------------|
|
|------------------------------------------------|
|   E        E  E E   E  E Q      E  E E E E E E E
|-----------------------------|--------------------|
|-----------------------------|--------------------|
|-----------------------------|--------------------|
|-----------------------------|--------------------|
|------------2--3-----3--2----|---3--2---2-3---3-2-|
|------------0--1-----1--0----|---1--0---0-1---1-0-|


      F5    E5     F5E5    F5    E5      F5    E5     F5E5    F5    E5
    Gtrs I, II
    PM--------------------------------------------------------------|
  E E E E E E Q    E E E E E E E E   E E E E E E Q    E E E E E E E E
|----------------|-----------------|----------------|-----------------|
|----------------|-----------------|----------------|-----------------|
|----------------|-----------------|----------------|-----------------|
|----------------|-----------------|----------------|-----------------|
|---2-3---3-2----|-3-2---2-3---3-2-|---2-3---3-2----|-3-2---2-3---3-2-|
|---0-1---1-0----|-1-0---0-1---1-0-|---0-1---1-0----|-1-0---0-1---1-0-|


                 Bridge
      F5          N.C.
    PM---------------------------------------------
  E E E E H       S S S S S S S S S S S S S S S S
|--------------||---------------------------------|
|--------------||---------------------------------|
|--------------||---------------------------------|
|--------------||---------------------------------|
|---2-3--------||---------------------------------|
|---0-1--------||-0-0-0-0-0-0-0-0-0-0-0-0-0-0-0-0-|


 ----------------------------------------------|
   S  S  S  S  S  S  S  S  S  S  S  S  S  S  S  S
|---------------------------------------------------|
|---------------------------------------------------|
|---------------------------------------------------|
|---------------------------------------------------|
|---------------------------------------------------|
|-12-12-12-12-12-12-12-12-11-11-11-11-11-11-11-11---|


  PM-------------------------------------------------------------------------|
  S S S S S S S S S S S S S S S S    S  S  S  S  S  S  S  S  S  S  S S S S S S
|---------------------------------|--------------------------------------------|
|---------------------------------|--------------------------------------------|
|---------------------------------|--------------------------------------------|
|---------------------------------|--------------------------------------------|
|---------------------------------|--------------------------------------------|
|-0-0-0-0-0-0-0-0-0-0-0-0-0-0-0-0-|-12-12-12-12-12-12-12-12-11-11-11S8-8-8-8-8-|


  PM-------------------------------
  S S S S S S S S S S S S S S S S
|---------------------------------|
|---------------------------------|
|---------------------------------|
|---------------------------------|
|---------------------------------|
|-0-0-0-0-0-0-0-0-0-0-0-0-0-0-0-0-|


 ----------------------------------------------|
   S  S  S  S  S  S  S  S  S  S  S  S  S  S  S  S
|-------------------------------------------------|
|-------------------------------------------------|
|-------------------------------------------------|
|-------------------------------------------------|
|-------------------------------------------------|
|-12-12-12-12-12-12-12-12-11-11-11-11-11-11-11-11-|


  PM-------------------------------------------------------------------------|
  S S S S S S S S S S S S S S S S    S  S  S  S  S  S  S  S  S  S  S S S S S S
|---------------------------------|--------------------------------------------|
|---------------------------------|--------------------------------------------|
|---------------------------------|--------------------------------------------|
|---------------------------------|--------------------------------------------|
|---------------------------------|--------------------------------------------|
|-0-0-0-0-0-0-0-0-0-0-0-0-0-0-0-0-|-12-12-12-12-12-12-12-12-11-11-11S8-8-8-8-8-|


    Gtr I
    PM-------------------------------
    S S S S S S S S S S S S S S S S
||----------------------------------|
||o---------------------------------|
||----------------------------------|
||----------------------------------|
||o---------------------------------|
||--0-0-0-0-0-0-0-0-0-0-0-0-0-0-0-0-|
|
|   Gtr II
|   PM-------------------------------
|   S S S S S S S S S S S S S S S S
||----------------------------------|
||o---------------------------------|
||----------------------------------|
||----------------------------------|
||o---------------------------------|
||--0-0-0-0-0-0-0-0-0-0-0-0-0-0-0-0-|


 ----------------------------------------------|
   S  S  S  S  S  S  S  S  S  S  S  S  S  S  S  S
|--------------------------------------------------|
|--------------------------------------------------|
|--------------------------------------------------|
|--------------------------------------------------|
|--------------------------------------------------|
|-12-12-12-12-12-12-12-12-11-11-11-11-11-11-11-11--|
|
|----------------------------------------------|
|  S  S  S  S  S  S  S  S  S  S  S  S  S  S  S  S
|--------------------------------------------------|
|--------------------------------------------------|
|--------------------------------------------------|
|--------------------------------------------------|
|--------------------------------------------------|
|--8--8--8--8--8--8--8--8--7--7--7--7--7--7--7--7--|


  PM-------------------------------------------------------------------------|
  S S S S S S S S S S S S S S S S    S  S  S  S  S  S  S  S  S  S  S S S S S S
|---------------------------------|--------------------------------------------|
|---------------------------------|--------------------------------------------|
|---------------------------------|--------------------------------------------|
|---------------------------------|--------------------------------------------|
|---------------------------------|--------------------------------------------|
|-0-0-0-0-0-0-0-0-0-0-0-0-0-0-0-0-|-12-12-12-12-12-12-12-12-11-11-11S8-8-8-8-8-|
|
| PM-------------------------------------------------------------------------|
| S S S S S S S S S S S S S S S S    S  S  S  S  S  S  S  S  S  S  S S S S S S
|---------------------------------|--------------------------------------------|
|---------------------------------|--------------------------------------------|
|---------------------------------|--------------------------------------------|
|---------------------------------|--------------------------------------------|
|---------------------------------|--------------------------------------------|
|-0-0-0-0-0-0-0-0-0-0-0-0-0-0-0-0-|--8--8--8--8--8--8--8--8--7--7--7-7S4-4-4-4-|


  Gtr II
  PM--------------------------------------------------------------|
  S S S S S S S S S S S S S S S S   S S S S S S S S S S S S S S S S
|---------------------------------|---------------------------------|
|---------------------------------|---------------------------------|
|---------------------------------|---------------------------------|
|---------------------------------|---------------------------------|
|---------------------------------|---------------------------------|
|-0-0-0-0-0-0-0-0-0-0-0-0-0-0-0-0-|-8-8-8-8-8-8-8-8-7-7-7-7-7-7-7-7-|


   PM------------------------------------------
   S  S  S  S  S  S  S  S  S  S  S S S  S S S
|---------------------------------------------|
|---------------------------------------------|
|---------------------------------------------|
|---------------------------------------------|
|---------------------------------------------|
|--0--0--0--0--0--0--0--0--0--0--0-0-0--0-0-0-|
|
| Gtr IV
|  PM------------------------------------------
|  S  S  S  S  S  S  S  S  S  S  S S Q
|---------------------------------------------|
|---------------------------------------------|
|---------------------------------------------|
|---------------------------------------------|
|---------------------------------------------|
|-12-12-12-12-12-12-12-12-11-11-11-8-8\-------|


 --------------------------------|
  S S S S S S S S S S S S S S S  S
|----------------------------------|
|----------------------------------|
|----------------------------------|
|----------------------------------|
|----------------------------------|
|-8-8-8-8-8-8-8-8-7-7-7-7S4-4-4--4-|
|
|-----------------------------|
| S S S S S S S S S S S S S S E
|----------------------------------|
|----------------------------------|
|----------------------------------|
|----------------------------------|
|----------------------------------|
|-8-8-8-8-8-8-8-8-7-7-7-7S4-4-4\---|


  1.
  Gtr II
  PM------------------------------|
  E E E E E E E E   E E E E E E E E
|-----------------|-----------------|
|-----------------|-----------------|
|-----------------|-----------------|
|-----------------|-----------------|
|---------3-2-1-0-|-----2---3-2-1-0-|
|-0-1-2-0---------|-0-1---0---------|
|
| Gtr I
| PM------------------------------|
| E E E E E E E E   E E E E E E E E
|-----------------|-----------------|
|-----------------|-----------------|
|-----------------|-----------------|
|-----------------|-----------------|
|-----------------|-----------------|
|-0-1-2-0-4-3-2-0-|-0-1-2-0-4-3-2-0-|


  PM------------------------------|
  E E E E E E E E   E E E E E E E E
|-----------------|------------------||
|-----------------|-----------------o||
|-----------------|------------------||
|-----------------|------------------||
|---------3-2-1-0-|---------3-2-1-0-o||
|-0-1-2-0---------|-0-1-2-0----------||
|
| PM------------------------------|
| E E E E E E E E   E E E E E E E E
|-----------------|------------------||
|-----------------|-----------------o||
|-----------------|------------------||
|-----------------|------------------||
|-----------------|-----------------o||
|-0-1-2-0-4-3-2-0-|-0-1-2-0-4-3-2-0--||


 Chorus
  2.
  $$
  F5E5    F5    E5      F5    E5     F5E5    F5    E5
  Gtrs I, II
  PM-----------------------------------------------|
  E E E E E E E E   E E E E E E Q    E E E E E E E E
|-----------------|----------------|-----------------|
|-----------------|----------------|-----------------|
|-----------------|----------------|-----------------|
|-----------------|----------------|-----------------|
|-3-2---2-3---3-2-|---2-3---3-2----|-3-2---2-3---3-2-|
|-1-0---0-1---1-0-|---0-1---1-0----|-1-0---0-1---1-0-|


      F5    E5     F5E5    F5    E5      F5    E5     F5E5    F5    E5
    PM--------------------------------------------------------------|
  E E E E E E Q    E E E E E E E E   E E E E E E Q    E E E E E E E E
|----------------|-----------------|----------------|-----------------|
|----------------|-----------------|----------------|-----------------|
|----------------|-----------------|----------------|-----------------|
|----------------|-----------------|----------------|-----------------|
|---2-3---3-2----|-3-2---2-3---3-2-|---2-3---3-2----|-3-2---2-3---3-2-|
|---0-1---1-0----|-1-0---0-1---1-0-|---0-1---1-0----|-1-0---0-1---1-0-|


      F5           E5    F5    E5      F5    E5
  PM-------------------------------------------|
  E E E E H      E E E E E E E E   E E E E E E Q
|--------------|-----------------|----------------|
|--------------|-----------------|----------------|
|--------------|-----------------|----------------|
|--------------|-----------------|----------------|
|---2-3--------|-3-2---2-3---3-2-|---2-3---3-2----|
|---0-1--------|-1-0---0-1---1-0-|---0-1---1-0----|


  F5E5    F5    E5      F5    E5
  PM------------|     PM--------|
  E E E E E E E E   E E E E E E Q
|-----------------|----------------|
|-----------------|----------------|
|-----------------|----------------|
|-----------------|----------------|
|-3-2---2-3---3-2-|---2-3---3-2----|
|-1-0---0-1---1-0-|---0-1---1-0----|


                       To Dbl. Coda
  F5E5    F5    E5      F5    E5     F5E5    F5    E5      F5  E5F5
  PM-------------------------------------------------------------|
  E E E E E E E E   E E E E E E Q    E E E E E E E E   E E E E E Q  E
|-----------------|----------------|-----------------|----------------||
|-----------------|----------------|-----------------|----------------||
|-----------------|----------------|-----------------|----------------||
|-----------------|----------------|-----------------|----------------||
|-3-2---2-3---3-2-|---2-3---3-2----|-3-2---2-3---3-2-|---2-3---2-3----||
|-1-0---0-1---1-0-|---0-1---1-0----|-1-0---0-1---1-0-|---0-1---0-1----||


 Guitar Solo
  N.C.
  Gtr V
                       |----3----|
   E    E    E    E    E    E    E    S  S  S  S
|------------------------------------------------|
|------------------------------------------------|
|-14---------------------------------------------|
|------16---15---13---12---15---13---11s10-11-13-|
|------------------------------------------------|
|------------------------------------------------|
|
| Gtrs I, II
|  PM---------------------------------------------
|  S S  S S  S S  S S  S S    S    S  S  S  S  S
|------------------------------------------------|
|------------------------------------------------|
|------------------------------------------------|
|------------------------------------------------|
|------------------------------------------------|
|--2-2--2-2--2-2--2-2--2-2----2----2--2--2--0--0-|


                 ~~~~
   +S   S  E    +H                 E    E
|-------------------------------------------|
|-------------------------------------------|
|-------------------------------------------|
|-(13)-11-10---(10)---------------10---11---|
|-------------------------------------------|
|-------------------------------------------|
|
|-----------------------------------------|
|   S   S  S S   S  S S S S S S S  S S  S S
|-------------------------------------------|
|-------------------------------------------|
|-------------------------------------------|
|-------------------------------------------|
|-------------------------------------------|
|---1---1--1-1---1--1-1-1-1-1-1-1--1-1--0-0-|


                                               ~~~~~~~~~~~~~~~~~~~~~
                      |-------3-------|
   E    Q        E    Q      Q        Q        H                +E     +E    q
|-------------------------------------------|----------------------------------------|
|-12s==19-------19---19-----18--------------|----------------------------------------|
|------------------------------------18-----|-17---------------(17)---(17)s==8-------|
|-------------------------------------------|----------------------------------------|
|-------------------------------------------|----------------------------------------|
|-------------------------------------------|----------------------------------------|
|
|  PM---------------------------------------------------------------------------------
|  S S  S S S S  S S  S S S    S S S    S S    S S S S S S S S   S  S   S  S S S S S
|-------------------------------------------|----------------------------------------|
|-------------------------------------------|----------------------------------------|
|-------------------------------------------|----------------------------------------|
|-------------------------------------------|----------------------------------------|
|-------------------------------------------|----------------------------------------|
|--2-2--2-2-2-2--2-2--2-2-2----2-2-2----0-0-|--1-1-1-1-1-1-1-1---1--1---1--1-1-1-0-0-|


   S  S  S  S  S  S  S  S  S  S  S  S  S  S  S  S
|---------------------------------------------------|
|---------------------------------------------------|
|-12s15-14-14-17-17-14-14-18-18-14-14-15-15-14-14---|
|---------------------------------------------------|
|---------------------------------------------------|
|---------------------------------------------------|
|
|----------------------------------------------|
|  S  S  S  S  S  S  S  S  S  S  S  S  S  S  S  S
|---------------------------------------------------|
|---------------------------------------------------|
|---------------------------------------------------|
|---------------------------------------------------|
|---------------------------------------------------|
|--2--2--2--2--2--2--2--2--2--2--2--2--2--2--0--0---|


   S  S  S  S  S  S  S  S  S  S  S  S  S  S  S S
|------------------------------------------------|
|-------------16-16-------14---------------------|
|-17-17-14-14-------14-14----14-14-14-15-15-14s9S|
|------------------------------------------------|
|------------------------------------------------|
|------------------------------------------------|
|
|  PM---------------------------------------------
|  S  S  S  S  S  S  S  S  S  S  S  S  S  S  S S
|------------------------------------------------|
|------------------------------------------------|
|------------------------------------------------|
|------------------------------------------------|
|------------------------------------------------|
|--1--1--1--1--1--1--1--1--1--1--1--1--1--1--0-0-|


                       ~~~~~~~~~~~~~~                      ~~~~
   Q.            E    +Q         +S   E    S    E    E    +Q         +Q         E    E
|--------------------------------------------|---------------------------------------8---|
|--------------------------------------------|-------------------------------------------|
|-14------------11---(11)-------(11)---------|-------------------------------------------|
|------------------------------------13---10h|=11---10---(10)-------(10)s======(3)-------|
|--------------------------------------------|-------------------------------------------|
|--------------------------------------------|-------------------------------------------|
|
|--------------------------------------------------------------------------------------|
|  S  S S S S S  S S   S  S S S   S   S S  S    S S  S S   S  S S S   S  S S S  S  S S S
|--------------------------------------------|-------------------------------------------|
|--------------------------------------------|-------------------------------------------|
|--------------------------------------------|-------------------------------------------|
|--------------------------------------------|-------------------------------------------|
|--------------------------------------------|-------------------------------------------|
|--2--2-2-2-2-2--2-2---2--2-2-2---2---2-0--0-|--1-1--1-1---1--1-1-1---1--1-1-1--1--1-0-0-|


   S  S  S  S  S  S  S  S  S  S  S  S  S  S  S  S
|-17-18-18-17-17-20-20-17-21-21-17-17-18-18-17-17-|
|-------------------------------------------------|
|-------------------------------------------------|
|-------------------------------------------------|
|-------------------------------------------------|
|-------------------------------------------------|
|
|  PM----------------------------------------------
|  S  S  S  S  S  S  S  S  S  S  S  S  S  S  S  S
|-------------------------------------------------|
|-------------------------------------------------|
|-------------------------------------------------|
|-------------------------------------------------|
|-------------------------------------------------|
|--2--2--2--2--2--2--2--2--2--2--2--2--2--2--0--0-|


   S  S  S  S  S  S  S  S  S  S  S  S  S  S  S  S
|-20-20-17-17-23-23-17-17-21-21-17-17-20-20-17-17-|
|-------------------------------------------------|
|-------------------------------------------------|
|-------------------------------------------------|
|-------------------------------------------------|
|-------------------------------------------------|
|
|----------------------------------------------|
|  S  S  S  S  S  S  S  S  S  S  S  S  S  S  S  S
|-------------------------------------------------|
|-------------------------------------------------|
|-------------------------------------------------|
|-------------------------------------------------|
|-------------------------------------------------|
|--1--1--1--1--1--1--1--1--1--1--1--1--1--1--0--0-|


   S  S  S  S  S  S  S  S  S  S  S  S  S  S  S  S
|-23-23-17-17-21-21-17-17-20-20-17-17-23-23-17-17-|
|-------------------------------------------------|
|-------------------------------------------------|
|-------------------------------------------------|
|-------------------------------------------------|
|-------------------------------------------------|
|
|  PM----------------------------------------------
|  S  S  S  S  S  S  S  S  S  S  S  S  S  S  S  S
|-------------------------------------------------|
|-------------------------------------------------|
|-------------------------------------------------|
|-------------------------------------------------|
|-------------------------------------------------|
|--2--2--2--2--2--2--2--2--2--2--2--2--2--2--0--0-|


                                                                N.C.
                                                   \2_____/0_______________
                                    ~~~~
   S  S  S  S  S  S  S  S  E       +Q.             Q     +H.
|-21-21-17-17-20-20-17-17------------------------|------------------------|
|-------------------------20b22---(20)-----------|------------------------|
|------------------------------------------------|------------------------|
|------------------------------------------------|-0-----(0)--------------|
|------------------------------------------------|------------------------|
|------------------------------------------------|------------------------|
|
|---------------------------------------------------------------------|
|  S  S  S  S  S  S  S  S  S    S   S  S S S S S   E   E  E   E E E E E
|------------------------------------------------|------------------------|
|------------------------------------------------|------------------------|
|------------------------------------------------|------------------------|
|------------------------------------------------|------------------------|
|------------------------------------------------|--------------3-2-1-0---|
|--1--1--1--1--1--1--1--1--1----1---1--1-1-1-1-1-|-0---1--2---0-4-3-2-0---|


                                        D.S.S. al Dbl. Coda
                                           /
                                                      ~
  +W                  +W                  +Q    +Q    Q  Q
|-------------------|-------------------|-------------------||
|-------------------|-------------------|-------------------||
|-------------------|-------------------|-------------------||
|-(0)---------------|-(0)---------------|-(0)---(0)---------||
|-------------------|-------------------|-------------x--x--||
|-------------------|-------------------|-------------x--x--||
|
|  PM-----------------------------------------------|
|  E  E E E E E E E    E  E E E E E E E    E  E  E  E H
|-------------------|-------------------|-------------------||
|-------------------|-------------------|-------------------||
|-------------------|-------------------|-------------------||
|-------------------|-------------------|-------------------||
|-----------3-2-1-0-|-----------3-2-1-0-|-------------1-----||
|--0--1-2-0-4-3-2-0-|--0--1-2-0-4-3-2-0-|--0--1--2--0-1-----||


  &&
  F5E5    F5    E5        F5
  Gtrs I, II
  PM----------|
  E E E E E E E E   +E  E E E H
|-----------------|----------------*|
|-----------------|----------------*|
|-----------------|----------------*|
|-3-2---2-3---3-2-|-(2)-2-3--------*|
|-3-0---2-3---3-2-|-(2)-2-3--------*|
|-1-0---0-1---1-0-|-(0)-0-1--------*|



Duration Legend
---------------
W - whole; H - half; Q - quarter; E - 8th; S - 16th; T - 32nd; X - 64th; a - acciaccatura
+ - note tied to previous; . - note dotted; .. - note double dotted
Uncapitalized letters represent notes that are staccato (1/2 duration)
Irregular groupings are notated above the duration line
Duration letters will always appear directly above the note/fret number it represents the
duration for.  Duration letters with no fret number below them represent rests.  Multi-
bar rests are notated in the form Wxn, where n is the number of bars to rest for.  Low
melody durations appear below the staff

Tablature Legend
----------------
 h   - hammer-on
 p   - pull-off
 b   - bend
 pb  - pre-bend
 r   - bend release (if no number after the r, then release immediately)
 /\  - slide into or out of (from/to "nowhere")
 s   - legato slide
 S   - shift slide
 - natural harmonic
[n]  - artificial harmonic
n(n) - tapped harmonic
 ~   - vibrato
 tr  - trill
 T   - tap
 TP  - trem. picking
 PM  - palm muting
\n/  - tremolo bar dip; n = amount to dip
 \n  - tremolo bar down
 n/  - tremolo bar up
/n\  - tremolo bar inverted dip
 =   - hold bend; also acts as connecting device for hammers/pulls
 <> - volume swell (louder/softer)
 x   - on rhythm slash represents muted slash
 o   - on rhythm slash represents single note slash

Misc Legend
-----------
 |  - bar
||  - double bar
||o - repeat start
o|| - repeat end
*|  - double bar (ending)
 :  - bar (freetime)
 $  - Segno
 &  - Coda
Tempo markers -  = BPM(8/16=s8/s16), where s8 = swing 8ths, s16 = swing 16ths


            
            
Suggest correction
Creating personal tab
Creating personal tab
You can edit any tab online and save it as your Personal.

You can edit, replace or remove any tab part or add personal notes – all changes will be seen only by you.

Personal tabs can be accessed anytime from any device, even offline.
Learn more »
Give kudos to tab author, rate the tab!
1 2 3 4 5
comments
print report bad tab
guest
You may want to rate the tab now too:
select rating
Wanna post a correction for this tab? Suggest correction