Oops, an error
Loading. Please wait.

Dittohead tab

version 2
version 2

Whole song

Interactive

by Slayer
4,187 views 1 this week
no commentswrite comment
1 2 3 4 5
x 3
add to favorites
×
Save as Personal and add changes to this tab that will be seen only by you. Learn more ›
×
You can save this tab as Personal to edit and correct it or add notes. All changes will be seen only by you. Learn more »
launch autoscroll
font size
0
reset
how to read this tab
guitar tuner
edit
Autoscroll
slow
fast
+/-
esc
set tempo
stop
DITTOHEAD
As recorded by Slayer
(From the 1994 Album DIVINE INTERVENTION)

Transcribed by The Beholder
        
Words and Music by Kerry King

Gtr I (Eb Ab Db Gb Bb Eb) - 'Untitled'
Gtr II (Eb Ab Db Gb Bb Eb) - 'Untitled'
Gtr III (Eb Ab Db Gb Bb Eb) - 'Untitled'
Temp:  230
[Intro]

    G#5
    Gtr I
    PM--------------------------------------------------------------|
    S S S S S S S S S S S S S S S S   S S S S S S S S S S S S S S S S
D#|---------------------------------|----------------------------------|
A#|---------------------------------|----------------------------------|
F#|---------------------------------|----------------------------------|
C#|---------------------------------|----------------------------------|
G#|---------------------------------|----------------------------------|
D#|-4-4-4-4-4-4-5-5-3-3-3-3-3-3-5-5-|-2-2-2-2-2-2-5-5-1-1-1-1-1-1-1-1--|
  |
  | Gtr II
  | Q       Q       H                 W
D#|---------------------------------|----------------------------------|
A#|---------------------------------|----------------------------------|
F#|---------------------------------|----------------------------------|
C#|---------------------------------|----------------------------------|
G#|-6-------------------------------|----------------------------------|
D#|-4-------------------------------|----------------------------------|

    G#5         A5  G5            A5  F#5
    PM----------------------------------------------------------------|
    S S S S S S S S S S S S S S S S   S S S S S S S S  S  S S S S S S S
D#|---------------------------------|-----------------------------------|
A#|---------------------------------|-----------------------------------|
F#|---------------------------------|-----------------------------------|
C#|---------------------------------|-----------------------------------|
G#|---------------------------------|-----------------------------------|
D#|-4-4-4-4-4-4-5-5-3-3-3-3-3-3-5-5-|-2-2-2-2-2-2-5-5--1--1-1-1-1-1-1-1-|
|
  | Q       E   E   Q       E   E     Q       Q        H
D#|---------------------------------|-----------------------------------|
A#|---------------------------------|-----------------------------------|
F#|---------------------------------|-----------------------------------|
C#|---------------------------------|-----------------------------------|
G#|-6-----------7---5-----------7---|-4---------------------------------|
D#|-4-----------5---3-----------5---|-2---------------19\---------------|

  [Verse]
      N.C.              G5  F#5                   Bb5 G#5
      Gtrs I, II
      PM--------------|   PM    PM--------------|   PM
      S S S S S S S S E E E E   S S S S S S S S E E E E
D#|--------------------------|-------------------------|
A#|o-------------------------|-------------------------|
F#|--------------------------|-------------------------|
C#|--------------------------|-------------------------|
G#|o-------------------5---4-|-------------------8---6-|
D#|--0-0-0-0-0-0-0-0-0-3-0-2-|-0-0-0-0-0-0-0-0-0-6-0-4-|

    N.C.              G5  F#5 N.C.
    PM--------------|   PM    PM----------------------------|
    S S S S S S S S E E E E   S S S S S S S S S S S S S S S S
D#|-------------------------|------------------------------------|
A#|-------------------------|------------------------------------|
F#|-------------------------|------------------------------------|
C#|-------------------------|------------------------------------|
G#|-------------------5---4-|------------------------------------|
D#|-0-0-0-0-0-0-0-0-0-3-0-2-|-4-4-4-4-4-4-5-5-2-2-2-2-2-2-2-2----|

    N.C.              G5  F#5                   Bb5 G#5
    PM--------------|   PM    PM--------------|   PM
    S S S S S S S S E E E E   S S S S S S S S E E E E
D#|-------------------------|-------------------------|
A#|-------------------------|-------------------------|
F#|-------------------------|-------------------------|
C#|-------------------------|-------------------------|
G#|-------------------5---4-|-------------------8---6-|
D#|-0-0-0-0-0-0-0-0-0-3-0-2-|-0-0-0-0-0-0-0-0-0-6-0-4-|

    N.C.              G5  F#5 N.C.
    PM--------------|   PM    PM----------------------------|
    S S S S S S S S E E E E   S S S S S S S S S S S S S S S S
D#|-------------------------|------------------------------------|
A#|-------------------------|------------------------------------|
F#|-------------------------|------------------------------------|
C#|-------------------------|------------------------------------|
G#|-------------------5---4-|------------------------------------|
D#|-0-0-0-0-0-0-0-0-0-3-0-2-|-4-4-4-4-4-4-5-5-2-2-2-2-2-2-2-2----|

    N.C.              G5  F#5                   Bb5 G#5
    PM--------------|   PM    PM--------------|   PM
    S S S S S S S S E E E E   S S S S S S S S E E E E
D#|-------------------------|-------------------------|
A#|-------------------------|-------------------------|
F#|-------------------------|-------------------------|
C#|-------------------------|-------------------------|
G#|-------------------5---4-|-------------------8---6-|
D#|-0-0-0-0-0-0-0-0-0-3-0-2-|-0-0-0-0-0-0-0-0-0-6-0-4-|

    N.C.              G5  F#5 N.C.
    PM--------------|   PM    PM----------------------------|
    S S S S S S S S E E E E   S S S S S S S S S S S S S S S S
D#|-------------------------|------------------------------------|
A#|-------------------------|------------------------------------|
F#|-------------------------|------------------------------------|
C#|-------------------------|------------------------------------|
G#|-------------------5---4-|------------------------------------|
D#|-0-0-0-0-0-0-0-0-0-3-0-2-|-4-4-4-4-4-4-5-5-2-2-2-2-2-2-2-2----|

    N.C.              G5  F#5 N.C.              Bb5 G#5
    PM------------|           PM------------|
    S S S S S S S S E E E E   S S S S S S S S E E E E
D#|-------------------------|-------------------------|
A#|-------------------------|-------------------------|
F#|-------------------------|-------------------------|
C#|-------------------------|-------------------------|
G#|-------------------5---4-|-------------------8---6-|
D#|-0-0-0-0-0-0-0-0-0-3-0-2-|-0-0-0-0-0-0-0-0-0-6-0-4-|

    N.C.              G5  F#5 N.C.
    PM------------|           PM----------------------------|
    S S S S S S S S E E E E   S S S S S S S S S S S S S S S S
D#|-------------------------|------------------------------------|
A#|-------------------------|------------------------------------|
F#|-------------------------|------------------------------------|
C#|-------------------------|------------------------------------|
G#|-------------------5---4-|------------------------------------|
D#|-0-0-0-0-0-0-0-0-0-3-0-2-|-4-4-4-4-4-4-5-5-3-3-3-3-3-3-5-5----|

    N.C.
    PM---------------------------------------------------------------
    S S S S S S S S S S S S S S S S   S S S S S S S S S S S S S S S S
D#|---------------------------------|---------------------------------|
A#|---------------------------------|---------------------------------|
F#|---------------------------------|---------------------------------|
C#|---------------------------------|---------------------------------|
G#|---------------------------------|---------------------------------|
D#|-2-2-2-2-2-2-5-5-1-1-1-1-1-1-1-1-|-4-4-4-4-4-4-5-5-3-3-3-3-3-3-5-5-|

   PM-------------------------------|
    S S S S S S S S S S S S S S S S
D#|----------------------------------||
A#|---------------------------------o||
F#|----------------------------------||
C#|----------------------------------||
G#|---------------------------------o||
D#|-2-2-2-2-2-2-5-5-1-1-1-1-1-1-1-1--||

    N.C.
    PM-----------------------------------------------------------------
    S S S S S S S S S S S S S S S S   S S S S S S S S S S S S S S S S
D#|---------------------------------|---------------------------------|
A#|---------------------------------|---------------------------------|
F#|---------------------------------|---------------------------------|
C#|---------------------------------|---------------------------------|
G#|---------------------------------|---------------------------------|
D#|-4-4-4-4-4-4-5-5-3-3-3-3-3-3-5-5-|-2-2-2-2-2-2-5-5-1-1-1-1-1-1-1-1-|

                                     2/4
   PM-------------------------------------------------|
    S S S S S S S S S S S S S S S S   S S S S S S S S
D#|---------------------------------|--------------------||
A#|---------------------------------|--------------------||
F#|---------------------------------|--------------------||
C#|---------------------------------|--------------------||
G#|---------------------------------|--------------------||
D#|-4-4-4-4-4-4-5-5-3-3-3-3-3-3-5-5-|-2-2-2-2-2-2-5-5----||

[Breakdown]
  Q=180
  F5E5                    F5
 4/4
  Gtr I
      PM----------------|   PM  PM
  E E E E E E E E   E E E E E E E E
D#|-----------------|-----------------|
A#|-----------------|-----------------|
F#|-----------------|-----------------|
C#|-----------------|-----------------|
G#|-3-2-------------|-------3---3---3-|
D#|-1-0-0-0-0-0-0-0-|-0-0-0-1-0-1-0-1-|
|
  | Gtr II
  |                           PM  PM
  | E E Q   H         Q   E E E E E E
D#|-----------------|-----------------|
A#|-----------------|-----------------|
F#|-----------------|-----------------|
C#|-----------------|-----------------|
G#|-3-2-------------|-------3---3---3-|
D#|-1-0-------------|-------1-0-1-0-1-|

      E5                              F5
         PM-----------------------|     PM  PM
    E E  E  E  E  E  E  E    E  E  E  E E E E E
D#|-----------------------|---------------------|
A#|-----------------------|---------------------|
F#|-----------------------|---------------------|
C#|-----------------------|---------------------|
G#|-3-2-------------------|-----------3---3---3-|
D#|-1-0--0--0--0--0--0--0-|--0--0--0--1-0-1-0-1-|
|
  |                                     PM  PM
  | E E  Q     Q     Q       Q     E  E E E E E
D#|-----------------------|---------------------|
A#|-----------------------|---------------------|
F#|-----------------------|---------------------|
C#|-----------------------|---------------------|
G#|-3-2-------------------|-----------3---3---3-|
D#|-1-0-12\---12\---12\---|-12\---12\-1-0-1-0-1-|

    F5E5                    F5            E5                    F5
    Gtrs I, II
        PM----------------|   PM  PM        PM----------------|   PM  PM
    E E E E E E E E   E E E E E E E E   E E E E E E E E   E E E E E E E E
D#|-----------------|-----------------|-----------------|-----------------|
A#|-----------------|-----------------|-----------------|-----------------|
F#|-----------------|-----------------|-----------------|-----------------|
C#|-----------------|-----------------|-----------------|-----------------|
G#|-3-2-------------|-------3---3---3-|-3-2-------------|-------3---3---3-|
D#|-1-0-0-0-0-0-0-0-|-0-0-0-1-0-1-0-1-|-1-0-0-0-0-0-0-0-|-0-0-0-1-0-1-0-1-|

    F5E5                    F5            E5                    F5
        PM----------------|   PM  PM        PM----------------|   PM  PM|
    E E E E E E E E   E E E E E E E E   E E E E E E E E   E E E E E E E E
D#|-----------------|-----------------|-----------------|-----------------|
A#|-----------------|-----------------|-----------------|-----------------|
F#|-----------------|-----------------|-----------------|-----------------|
C#|-----------------|-----------------|-----------------|-----------------|
G#|-3-2-------------|-------3---3---3-|-3-2-------------|-------3---3-----|
D#|-1-0-0-0-0-0-0-0-|-0-0-0-1-0-1-0-1-|-1-0-0-0-0-0-0-0-|-0-0-0-1-0-1-3-2-|

      D#5/BbD#5E5/B  D5/AD#5/BbD#5E5/B
        PM|      PM|       PM|      PM--|
      E E E E  E E E E   E E E E  E E E E
D#|-------------------|-------------------||
A#|o------------------|------------------o||
F#|-------------------|-------------------||
C#|--1-----1--2-----0-|-1-----1--2--------||
G#|o-1-----1--2-----0-|-1-----1--2-------o||
D#|----3-2------3-2---|---3-2------3-2-1--||

    E5/B  E5/F5/C  D#5/E5/B  E5/F5/C      E5/B  E5/F5/C  D#5/Bb
      PM|      PM|       PM|      PM--|     PM|      PM|
    E E E E  E E E E   E E E E  E E E E   E E E E  E E E E
D#|------------------|------------------|------------------|
A#|------------------|------------------|------------------|
F#|------------------|------------------|------------------|
C#|-2-----2--3-----1-|-2-----2--3-------|-2-----2--3-----1-|
G#|-2-----2--3-----1-|-2-----2--3-------|-2-----2--3-----1-|
D#|---4-3------4-3---|---4-3------4-3-2-|---4-3------4-3---|

                               [Guitar Solo 1]
    E5/B  E5/F5/C               F5/C         D5/E5/BF5/C     G5/G#5/D5/A  E5/B
      PM|      PM                                        PM       PM
    E E E E  E E  E     E        E E E E E E E  E     E  E E E  E E  E     E
D#|--------------------------||-------------------|-----------------------------|
A#|--------------------------||-------------------|-----------------------------|
F#|--------------------------||-------------------|-----------------------------|
C#|-2-----2--3----0-----2----||--3-----------0--2-|---3----3-5--6----0-----2----|
G#|-2-----2--3----0-----2----||--3-----------0--2-|---3----3-5--6----0-----2----|
D#|---4-3------4-------------||----0-0-0-0-0------|------0--------0-------------|
  |
  | Gtr III
  |                              ~~~~~~~~~~~~~~~~~~~~~~~~
  | H        Q    S  S  S  S     W                   +H.             S  S  S  S
D#|--------------12h19p12h16-||-12----------------|-(12)------------12-14-14-15-|
A#|--------------------------||-------------------|-----------------------------|
F#|--------------------------||-------------------|-----------------------------|
C#|--------------------------||-------------------|-----------------------------|
G#|--------------------------||-------------------|-----------------------------|
D#|--------------------------||-------------------|-----------------------------|

    F5/C                                        D5/A    E5/B
           PM-----------------------------|
     E     E      E      E        E        E      E      E
D#|-------------------------------------------------------------|
A#|-------------------------------------------------------------|
F#|-------------------------------------------------------------|
C#|--3--------------------------------------------0------2------|
G#|--3--------------------------------------------0------2------|
D#|--------0------0------0--------0--------0--------------------|
  |
  |                      |--3--|  |--3--|
  |  S  S  S  S  +S   S  S  S  S  S  S  S  S  S  +S   S  S  S
D#|-15-14-12----------------------------------------------------|
A#|----------15-(15)-15-12-12-12-13-13-13-12-13-(13)-15-15-13---|
F#|-------------------------------------------------------------|
C#|-------------------------------------------------------------|
G#|-------------------------------------------------------------|
D#|-------------------------------------------------------------|


    F5/C                        D5/E5/BF5/C          D5/E5/BF5/C
           PM       PM--------|
     E     E  E     E      E  E E  E    E E E E  E E E  E
D#|----------------------------------|--------------------|
A#|----------------------------------|--------------------|
F#|----------------------------------|--------------------|
C#|--3--------3-----------------0--2-|--3------------0--2-|
G#|--3--------3-----------------0--2-|--3------------0--2-|
D#|--------0--------5------4--3------|----0-0-0--0-0------|
  |
  |                                     ~~~~~~~~~~~~~~~~~~~
  |  S  S  E  S  S  E     +H            H        H
D#|----------------------------------|--------------------|
A#|-12-12----------------------------|--------------------|
F#|-------14-12-12-14b16-(14)--------|-14-------14--------|
C#|----------------------------------|--------------------|
G#|----------------------------------|--------------------|
D#|----------------------------------|--------------------|


           G5/G#5/Eb D5/E5/BF5/C                         D5/AE5/B
       PM          PM             PM---------------|
     E E E E    E  E E  E    E    E     E  E  E     E     E   E
D#|-----------------------|----------------------------------------|
A#|-----------------------|----------------------------------------|
F#|-----------------------|----------------------------------------|
C#|--3---3-5----6----0--2-|--3----------------------------0---2----|
G#|--3---3-5----6----0--2-|--3----------------------------0---2----|
D#|----0-----------0------|-------0-----0--0--0-----0--------------|
|
  |~~~~~~~~~~~~~~~~
  |  H          H            S  E    S  E  E  S  S  S  S  E   S  S
D#|-----------------------|----------------------------------------|
A#|-----------------------|----------------------------------------|
F#|-14--------[14]--------|-11-11---12-11-12-14-14-12-11-----------|
C#|-----------------------|------------------------------14--12-11-|
G#|-----------------------|----------------------------------------|
D#|-----------------------|----------------------------------------|


    F5/C                   D5E5/BF5/C
        PM---------------|
     E  E  E     E     E E E E
D#|----------------------------|
A#|----------------------------|
F#|----------------------------|
C#|--3---------------------0-2-|
G#|--3-----2---------------0-2-|
D#|-----0--------4-----3-2-----|
  |
  |                    ~~
  |  E  E  S  S  S  S  H
D#|----------------------------|
A#|----------------------------|
F#|----------------------------|
C#|-12-14-11-11----------------|
G#|-------------14-14-12-------|
D#|----------------------------|

                     D5/AE5/B  F5/C        G5/DG#5/D5/E5/B
                                   PM            PM
    E E E   E E    E  E  E      E  E   E   E   E E E  E
D#|--------------------------|----------------------------|
A#|--------------------------|----------------------------|
F#|--------------------------|----------------------------|
C#|-3-----------------0--2---|--3------3---5---6---0--2---|
G#|-3-----------------0--2---|--3------3---5---6---0--2---|
D#|---0-0---0-0----0---------|-----0-------------0--------|
  |
  |                                    |--3--|
  | E E S S E S  S E  E  E     +E  S S E E   E E E E  S S
D#|--------------------------|----------------------------|
A#|--------------------------|----------------------------|
F#|--------------------------|-------------------7-9--7-9-|
C#|----------------------7b8-|-(7)-7-8-9-7---8-9----------|
G#|-7-7-8-8-7-8-10-7-10------|----------------------------|
D#|--------------------------|----------------------------|

    F5/C                    D5/E5/BF5/C                        D5/AE5/BF5/C
        PM--------------|               PM---------------|
     E  E E      E   E   E  E  E    E   E   E    E   E     E   E   E
D#|------------------------------|-----------------------------------|
A#|------------------------------|-----------------------------------|
F#|------------------------------|-----------------------------------|
C#|--3----------------------0--2-|--3--------------------------0---2-|
G#|--3----------------------0--2-|--3-------2------------------0---2-|
D#|-----0-0------0---0---0-------|------0--------4---3-----2---------|
  |
  |       /0.5\                         \1  \0.5
  |                                         ~~~~~
  | +Q    E     +E  +E  +Q.         E   E   Q       +E    +E   Q
D#|------------------------------|-----------------------------------|
A#|------------------------------|-[7]-[7]-[7]-----([7])-([7])-------|
F#|-(9)---9-----(9)-(9)-(9)------|-----------------------------3/----|
C#|------------------------------|-----------------------------------|
G#|------------------------------|-----------------------------------|
D#|------------------------------|-----------------------------------|

                                              D5/A     E5/B
           PM---------------------------|
     E     E     E        E        E     E     E        E
D#|----------------------------------------------------------|
A#|----------------------------------------------------------|
F#|----------------------------------------------------------|
C#|--3-----------------------------------------0--------2----|
G#|--3-----------------------------------------0--------2----|
D#|--------0-----0--------0--------0-----0-------------------|
  |
  |              |------6-------|
  |  S  S  S  S  S  S  S  S  S  S  S  S  S  S  S  T  T  S  S
D#|----------------------------------------------------------|
A#|-11-11-11-12-12-11-11-12-12-12-14-12-12-13-15-12-13-12-13-|
F#|----------------------------------------------------------|
C#|----------------------------------------------------------|
G#|----------------------------------------------------------|
D#|----------------------------------------------------------|

    F5/C                    G5/D     G#5/Eb      D5/A  E5/B
              PM                            PM
     E        E     E        E        E     E     E     E
D#|----------------------------------------------------------|
A#|----------------------------------------------------------|
F#|----------------------------------------------------------|
C#|--3--------------3--------5--------6-----------0-----2----|
G#|--3--------------3--------5--------6-----------0-----2----|
D#|-----------0-----------------------------0----------------|
  |
  |                 |------6-------|
  |  T  T  S  S  S  S  S  S  S  S  S  S  S  S  S  S  S  S  S
D#|----------------------------------------------------------|
A#|-13-12-13-13-14-14-16-16-14-14p13-14-14-15-15-17-17-15----|
F#|----------------------------------------------------------|
C#|-------------------------------------------------------14-|
G#|----------------------------------------------------------|
D#|----------------------------------------------------------|

    F5/C                                  D5/A  E5/B    F5/C                             D#5/F5
           PM-----------------------|                             PM---------------|
     E     E     E     E      E      E     E     E       E        E     E  E     E  E     E   E
D#|---------------------------------------------------|--------------------------------------------|
A#|---------------------------------------------------|--------------------------------------------|
F#|---------------------------------------------------|--------------------------------------------|
C#|--3-------------------------------------0-----2----|--3--------------------------------1--------|
G#|--3-------------------------------------0-----2----|--3--------------2-----------------1---3----|
D#|--------0-----0-----0------0------0----------------|-----------0--------4-----3--2---------1----|
  |
  |                                                      |--3--|
  |  S  S  S  S  S  S  S  S  +S   S  S  S  S  S  S  S    S  S  S  S  S  E  S  S  E  S  S  E   E
D#|---------------------------------------------------|--------------------------------------------|
A#|---------------------------------------------------|--------------------------------------------|
F#|---------------------------------------------------|-------19-17h18h20-17h18h20-18S19-22--19----|
C#|-15-17-15-15-16-18-15-16-(16)-17-18-20-17-18-20-17-|-18h20--------------------------------------|
G#|---------------------------------------------------|--------------------------------------------|
D#|---------------------------------------------------|--------------------------------------------|

    F5 E5                    F5            E5                    F5
     ~~  PM----------------|   PM  PM        PM----------------|   PM  PM|
     W                 E E E E E E E E   E E E E E E E E   E E E E E E E E
D#|-23---------------|-----------------|-----------------|-----------------|
A#|-23---------------|-----------------|-----------------|-----------------|
F#|------------------|-----------------|-----------------|-----------------|
C#|------------------|-----------------|-----------------|-----------------|
G#|--3-2-------------|-------3---3---3-|-3-2-------------|-------3---3---3-|
D#|--1-0-0-0-0-0-0-0-|-0-0-0-1-0-1-0-1-|-1-0-0-0-0-0-0-0-|-0-0-0-1-0-1-0-1-|
   E E E E E E E E

    F5E5                    F5            E5                    F5
        PM----------------|   PM  PM        PM----------------|   PM  PM|
    E E E E E E E E   E E E E E E E E   E E E E E E E E   E E E E E E E E
D#|-----------------|-----------------|-----------------|-----------------|
A#|-----------------|-----------------|-----------------|-----------------|
F#|-----------------|-----------------|-----------------|-----------------|
C#|-----------------|-----------------|-----------------|-----------------|
G#|-3-2-------------|-------3---3---3-|-3-2-------------|-------3---3---3-|
D#|-1-0-0-0-0-0-0-0-|-0-0-0-1-0-1-0-1-|-1-0-0-0-0-0-0-0-|-0-0-0-1-0-1-0-1-|

[Interlude]
    N.C.
   12/8
    Gtr I
    E E E E E E E E E E E E   E E E E E E E E E E E E
D#|-------------------------|-------------------------|
A#|-------------------------|-------------------------|
F#|---3-----4-----5-----6---|---4-----5-----6-----7---|
C#|-----1-----------3-----4-|-----2-----3-----4-----5-|
G#|-1-----2---2-3-----4-----|-2-----3-----4-----5-----|
D#|-------------------------|-------------------------|
|
  | Gtr II
  | E E E E E E E E E E E E   E E E E E E E E E E E E
D#|-------------------------|-------------------------|
A#|-------------------------|-------------------------|
F#|-------------------------|-------------------------|
C#|---5-----6-----7-----8---|---5-----6-----7-----8---|
G#|-----3-----4-----5-------|-----3-----4-----5-------|
D#|-3-----4-----5-----6---6-|-3-----4-----5-----6---6-|

    E E E E E E E  E E E  E E
D#|-----------------------------|
A#|-----------------------------|
F#|---8-----9-----10-----11-----|
C#|-----6-----7------8------9---|
G#|-5-----6-----7------8--------|
D#|-----------------------------|
|
  | E E E E E E E  E E E  E E
D#|-----------------------------|
A#|-----------------------------|
F#|-----------------------------|
C#|---8-----9-----10-----11-----|
G#|-----6-----7------8------9---|
D#|-5-----6-----7------8--------|

    N.C.
   6/8           4/4                  6/8             7/8
    E E E E E E   E  E E E  E  E E E   E  E E E  E E   E  E  E  E  E  E E
D#|-------------|--------------------|---------------|--------------------|
A#|-------------|--------------------|---------------|--------------------|
F#|---8-----9---|---10-----11--------|---10-----11---|---12-------13------|
C#|-----6-----7-|------8------10-9-7-|------8------9-|------10-------11---|
G#|-5-----6-----|-7------8-----------|-7------8------|-9-------10-------7-|
D#|-------------|--------------------|---------------|--------------------|
|
  | E E E E E E   E  E E E  E  E E E   E  E E E  E E   E  E  E  E  E  E E
D#|-------------|--------------------|---------------|--------------------|
A#|-------------|--------------------|---------------|--------------------|
F#|-------------|--------------------|---------------|--------------------|
C#|---8-----9---|---10-----11--------|----8------9---|---10-------11------|
G#|-----6-----7-|------8------10-9-8-|------6------7-|-------8--------9-0-|
D#|-5-----6-----|-7------8-----------|-5------6------|-7--------8---------|

    N.C.
   9/8                      4/4
     E E E  E E E  E  E  E    E  E  E  E  E  E E E
D#|------------------------|-----------------------||
A#|------------------------|-----------------------||
F#|-10-----11-----12-------|-13--------------------||
C#|----8------9------10----|----12-11-10-----------||
G#|------8------9-------10-|-------------11-10-8-8-||
D#|------------------------|-----------------------||
|
  |  E E E  E E E  E  E  E    E  E  E  E  E  E E E
D#|------------------------|-----------------------||
A#|------------------------|-----------------------||
F#|------------------------|-----------------------||
C#|--8------9-----10-------|-11--------------------||
G#|----6------7-------8----|----10--9--8-----------||
D#|------6------7--------8-|--------------9--8-6-6-||

[Guitar Solo 2]
  Q=230
  N.C.
  Gtr III
   T     T     T     T     T     T     T     T
   S  S  S  S  S  S  S  S  S  S  S  S  S  S  S  S
D#|-------------------------------------------------|
A#|-------------------------------------------------|
F#|-16p12-16p12-16p12-16p12-16p12-16p12-16p12-16p12-|
C#|-------------------------------------------------|
G#|-------------------------------------------------|
D#|-------------------------------------------------|
  |
  | Gtrs I, II
  |  PM----------------------------------------------
  |  S  S  S  S  S  S  S  S  S  S  S  S  S  S  S  S
D#|-------------------------------------------------|
A#|-------------------------------------------------|
F#|-------------------------------------------------|
C#|-------------------------------------------------|
G#|-------------------------------------------------|
D#|--0--0--0--0--0--0--0--0--0--0--0--0--0--0--0--0-|

     T     T     T     T     T     T     T     T
     S  S  S  S  S  S  S  S  S  S  S  S  S  S  S  S
D#|-------------------------------------------------|
A#|-------------------------------------------------|
F#|-16p13-16p13-16p13-16p13-16p13-16p13-16p13-16p13-|
C#|-------------------------------------------------|
G#|-------------------------------------------------|
D#|-------------------------------------------------|
  |
  |----------------------------------------------|
  |  S  S  S  S  S  S  S  S  S  S  S  S  S  S  S  S
D#|-------------------------------------------------|
A#|-------------------------------------------------|
F#|-------------------------------------------------|
C#|-------------------------------------------------|
G#|-------------------------------------------------|
D#|--0--0--0--0--0--0--0--0--0--0--0--0--0--0--0--0-|

    G5                      G#5
     T     T     T     T     T     T     T     T
     S  S  S  S  S  S  S  S  S  S  S  S  S  S  S  S
D#|-------------------------------------------------|
A#|-------------------------------------------------|
F#|-16p14-16p14-16p14-16p14-16p14-16p14-16p14-16p14-|
C#|-------------------------------------------------|
G#|-------------------------------------------------|
D#|-------------------------------------------------|
  |
  |        PM---------|            PM---------|
  |  E     S  S  S  S  E     E     S  S  S  S  E
D#|-------------------------------------------------|
A#|-------------------------------------------------|
F#|-------------------------------------------------|
C#|-------------------------------------------------|
G#|--5-----------------------6----------------------|
D#|--3-----0--0--0--0--0-----4-----0--0--0--0--0----|

    G5                   G5 F#5   F5
     T     T     T     T     T     T     T     T
     S  S  S  S  S  S  S  S  S  S  S  S  S  S  S  S
D#|-------------------------------------------------|
A#|-------------------------------------------------|
F#|-19p14-19p14-19p14-19p14-19p14-19p14-19p14-19p14-|
C#|-------------------------------------------------|
G#|-------------------------------------------------|
D#|-------------------------------------------------|
  |
  |        PM---------|
  |  E     S  S  S  S  E     E     E     Q
D#|-------------------------------------------------|
A#|-------------------------------------------------|
F#|-------------------------------------------------|
C#|-------------------------------------------------|
G#|--5-----------------------5-----4-----3----------|
D#|--3-----0--0--0--0--0-----3-----2-----1----------|

    N.C.
     T     T     T     T     T     T     T     T
     S  S  S  S  S  S  S  S  S  S  S  S  S  S  S  S
D#|-------------------------------------------------|
A#|-17p12-16p12-17p12-16p12-17p12-16p12-17p12-16p13-|
F#|-------------------------------------------------|
C#|-------------------------------------------------|
G#|-------------------------------------------------|
D#|-------------------------------------------------|
  |
  |  PM----------------------------------------------
  |  S  S  S  S  S  S  S  S  S  S  S  S  S  S  S  S
D#|-------------------------------------------------|
A#|-------------------------------------------------|
F#|-------------------------------------------------|
C#|-------------------------------------------------|
G#|-------------------------------------------------|
D#|--0--0--0--0--0--0--0--0--0--0--0--0--0--0--0--0-|


     T     T     T     T     T     T     T     T
     S  S  S  S  S  S  S  S  S  S  S  S  S  S  S  S
D#|-------------------------------------------------|
A#|-17p13-17p13-17p13-17p13-17p13-17p13-17p13-17p13-|
F#|-------------------------------------------------|
C#|-------------------------------------------------|
G#|-------------------------------------------------|
D#|-------------------------------------------------|
  |
  |----------------------------------------------|
  |  S  S  S  S  S  S  S  S  S  S  S  S  S  S  S  S
D#|-------------------------------------------------|
A#|-------------------------------------------------|
F#|-------------------------------------------------|
C#|-------------------------------------------------|
G#|-------------------------------------------------|
D#|--0--0--0--0--0--0--0--0--0--0--0--0--0--0--0--0-|

    G5                      G#5
     T     T     T     T     T     T     T     T
     S  S  S  S  S  S  S  S  S  S  S  S  S  S  S  S
D#|-------------------------------------------------|
A#|-18p13-18p13-18p13-18p13-18p13-18p13-18p13-18p13-|
F#|-------------------------------------------------|
C#|-------------------------------------------------|
G#|-------------------------------------------------|
D#|-------------------------------------------------|
  |
  |        PM---------|            PM---------|
  |  E     S  S  S  S  E     E     S  S  S  S  E
D#|-------------------------------------------------|
A#|-------------------------------------------------|
F#|-------------------------------------------------|
C#|-------------------------------------------------|
G#|--5-----------------------6----------------------|
D#|--3-----0--0--0--0--0-----4-----0--0--0--0--0----|

    G5                      G5    F#5   F5
     T     T     T     T     T     T     T     T
     S  S  S  S  S  S  S  S  S  S  S  S  S  S  S  S
D#|-------------------------------------------------|
A#|-20p15-19p15-20p15-20p15-20p15-20p15-20p15-20p15-|
F#|-------------------------------------------------|
C#|-------------------------------------------------|
G#|-------------------------------------------------|
D#|-------------------------------------------------|
  |
  |        PM---------|
  |  E     S  S  S  S  E     E     E     Q
D#|-------------------------------------------------|
A#|-------------------------------------------------|
F#|-------------------------------------------------|
C#|-------------------------------------------------|
G#|--5-----------------------5-----4-----3----------|
D#|--3-----0--0--0--0--0-----3-----2-----1----------|

    N.C.
                                                      ~~~~~~
     Q           +Q         Q           Q             H                     Q         +Q
D#|------------------------------------------------|-----------------------21--------(21)-------|
A#|-20b22-------(20)-------20b22-------20b22-------|-20b22================(20)-------(20)-------|
F#|------------------------------------------------|--------------------------------------------|
C#|------------------------------------------------|--------------------------------------------|
G#|------------------------------------------------|--------------------------------------------|
D#|------------------------------------------------|--------------------------------------------|
  |
  |  PM---------------------------------------------------------------------------------------|
  |  S    S S S   S  S S S  S    S S S  S    S S S    S     S S S S S S S   S  S S S   S  S S S
D#|------------------------------------------------|--------------------------------------------|
A#|------------------------------------------------|--------------------------------------------|
F#|------------------------------------------------|--------------------------------------------|
C#|------------------------------------------------|--------------------------------------------|
G#|------------------------------------------------|--------------------------------------------|
D#|--0----0-0-0---0--0-0-0--0----0-0-0--0----0-0-0-|--0-----0-0-0-0-0-0-0---0--0-0-0---0--0-0-0-|

    G5                    G#5             G5            G5  F#F5
                     \3.5
                     ~~~~~~~~~                          ~~~
     +E   +E     E   E    +H              H             H
D#|-------------------------------------|--------------------------|
A#|-(20)r(20)---17---0----(0)-----------|--------------------------|
F#|------------------0----(0)-----------|-7b9-----------7b9--------|
C#|-------------------------------------|--------------------------|
G#|-------------------------------------|--------------------------|
D#|-------------------------------------|--------------------------|
  |
  |        PM--------|        PM------|       PM------|
  |   E    S  S  S S E     E  S S S S E   E   S S S S E E   E Q
D#|-------------------------------------|--------------------------|
A#|-------------------------------------|--------------------------|
F#|-------------------------------------|--------------------------|
C#|-------------------------------------|--------------------------|
G#|---5--------------------6------------|-5-------------5---4-3----|
D#|---3----0--0--0-0-0-----4--0-0-0-0-0-|-3---0-0-0-0-0-3---2-1----|


    N.C.
            |---3---|                     |---3---|   |---3---|   |---3---|
    S S S S E   E   E   S S S S S S E     E   E   E   E   E   E   E   E   E   E   E
D#|-------------------------------------|---------------------------------------------|
A#|-------------------------------------|---------------------------------------------|
F#|-4-4-5-4-5---4---4---7-5p4-5-4-4-7---|---------------------------------------------|
C#|-------------------------------------|-5---4---5---4---4---------------------------|
G#|-------------------------------------|---------------------7---5---3---7-----------|
D#|-------------------------------------|-------------------------------------0---0---|
  |
  | PM------------------------------------------------------------------------------|
  | S S S S S S   S   S S S S S S S S S   S S   S   S S S   S   S S S   S   S S S S S
D#|-------------------------------------|---------------------------------------------|
A#|-------------------------------------|---------------------------------------------|
F#|-------------------------------------|---------------------------------------------|
C#|-------------------------------------|---------------------------------------------|
G#|-------------------------------------|---------------------------------------------|
D#|-0-0-0-0-0-0---0---0-0-0-0-0-0-0-0-0-|-0-0---0---0-0-0---0---0-0-0---0---0-0-0-0-0-|


    G5           G#5               G5             F#5     F5
    \6
    ~~
    H.                  Q           Q       Q      H
D#|--------------------19--------|-19------19-----19----------||
A#|--------------------22b23-----|-22b23---22b23--22b23-------||
F#|------------------------------|----------------------------||
C#|------------------------------|----------------------------||
G#|------------------------------|----------------------------||
D#|-0----------------------------|----------------------------||
  |
  |    PM------|   PM----------|
  | E  S S S S E E S S  S    S E    E    E  Q      E    E Q
D#|------------------------------|----------------------------||
A#|------------------------------|----------------------------||
F#|------------------------------|----------------------------||
C#|------------------------------|----------------------------||
G#|-5------------6---------------|--5--------------5----4-3---||
D#|-3--0-0-0-0-0-4-0-0--0----0-0-|--3--------------3----2-1---||


[Verse]
    N.C.
    PM--------------------------------------------------------------|
    S S S S S S S S S S S S S S S S   S S S S S S S S S S S S S S S S
D#|---------------------------------|---------------------------------|
A#|---------------------------------|---------------------------------|
F#|---------------------------------|---------------------------------|
C#|---------------------------------|---------------------------------|
G#|---------------------------------|---------------------------------|
D#|-0-0-0-0-0-0-0-0-0-0-0-0-0-0-0-0-|-0-0-0-0-0-0-0-0-0-0-0-0-0-0-0-0-|

    G5          G#5           G5          G5 F#F5
      PM------|   PM------|     PM------|
    E S S S S E E S S S S E   E S S S S E E  E Q
D#|-------------------------|----------------------|
A#|-------------------------|----------------------|
F#|-------------------------|----------------------|
C#|-------------------------|----------------------|
G#|-5-----------6-----------|-5-----------5--4-3---|
D#|-3-0-0-0-0-0-4-0-0-0-0-0-|-3-0-0-0-0-0-3--2-1---|


    N.C.
    PM--------------------------------------------------------------|
    S S S S S S S S S S S S S S S S   S S S S S S S S S S S S S S S S
D#|---------------------------------|---------------------------------|
A#|---------------------------------|---------------------------------|
F#|---------------------------------|---------------------------------|
C#|---------------------------------|---------------------------------|
G#|---------------------------------|---------------------------------|
D#|-0-0-0-0-0-0-0-0-0-0-0-0-0-0-0-0-|-0-0-0-0-0-0-0-0-0-0-0-0-0-0-0-0-|


    G5          G#5           G5          G5F#F5
      PM------|   PM------|     PM------|
    E S S S S E E S S S S E   E S S S S E E E Q
D#|-------------------------|----------------------|
A#|-------------------------|----------------------|
F#|-------------------------|----------------------|
C#|-------------------------|----------------------|
G#|-5-----------6-----------|-5-----------5-4-3----|
D#|-3-0-0-0-0-0-4-0-0-0-0-0-|-3-0-0-0-0-0-3-2-1----|


    N.C.
    PM--------------------------------------------------------------|
    S S S S S S S S S S S S S S S S   S S S S S S S S S S S S S S S S
D#|---------------------------------|---------------------------------|
A#|---------------------------------|---------------------------------|
F#|---------------------------------|---------------------------------|
C#|---------------------------------|---------------------------------|
G#|---------------------------------|---------------------------------|
D#|-0-0-0-0-0-0-0-0-0-0-0-0-0-0-0-0-|-0-0-0-0-0-0-0-0-0-0-0-0-0-0-0-0-|


                                          G5F#F5
      PM------|   PM------|     PM------|
    E S S S S E E S S S S E   E S S S S E E E Q
D#|-------------------------|----------------------|
A#|-------------------------|----------------------|
F#|-------------------------|----------------------|
C#|-------------------------|----------------------|
G#|-5-----------6-----------|-5-----------5-4-3----|
D#|-3-0-0-0-0-0-4-0-0-0-0-0-|-3-0-0-0-0-0-3-2-1----|


    N.C.
    PM--------------------------------------------------------------|
    S S S S S S S S S S S S S S S S   S S S S S S S S S S S S S S S S
D#|---------------------------------|---------------------------------|
A#|---------------------------------|---------------------------------|
F#|---------------------------------|---------------------------------|
C#|---------------------------------|---------------------------------|
G#|---------------------------------|---------------------------------|
D#|-0-0-0-0-0-0-0-0-0-0-0-0-0-0-0-0-|-0-0-0-0-0-0-0-0-0-0-0-0-0-0-0-0-|


                                          G5F#F5
      PM------|   PM------|     PM----|
    E S S S S E E S S S S E   E S S S S E E E E E
D#|-------------------------|-----------------------*|
A#|-------------------------|-----------------------*|
F#|-------------------------|-----------------------*|
C#|-------------------------|-----------------------*|
G#|-5-----------6-----------|-5-----------5-4-3-----*|
D#|-3-0-0-0-0-0-4-0-0-0-0-0-|-3-0-0-0-0-0-3-2-1-----*|


************************************

Duration Legend

W - whole; H - half; Q - quarter; E - 8th; S - 16th; T - 32nd; X - 64th; a - acciaccatura
+ - note tied to previous; . - note dotted; .. - note double dotted
Uncapitalized letters represent notes that are staccato (1/2 duration)
Irregular groupings are notated above the duration line
Duration letters will always appear directly above the note/fret number it represents the
duration for.  Duration letters with no fret number below them represent rests.  Multi-
bar rests are notated in the form Wxn, where n is the number of bars to rest for.  Low
melody durations appear below the staff

************************************

| \    Slide down
| PM   Palm mute
| (n)  Ghost note
| h    Hammer-on
| p    Pull-off
| ~    Vibrato
| b    Bend
| [n]  Artificial harmonic (Pinch harmonic)
| /    Slide up
| *    Natural harmonic

************************************

            
            
Suggest correction
Creating personal tab
Creating personal tab
You can edit any tab online and save it as your Personal.

You can edit, replace or remove any tab part or add personal notes – all changes will be seen only by you.

Personal tabs can be accessed anytime from any device, even offline.
Learn more »
Give kudos to tab author, rate the tab!
1 2 3 4 5
comments
print report bad tab
guest
You may want to rate the tab now too:
select rating
Wanna post a correction for this tab? Suggest correction