Oops, an error
Loading. Please wait.

Final Six tab

version 2
version 2

Whole song

Interactive

by Slayer
3,681 views 1 this week
4 commentsread comments
1 2 3 4 5
2 more votes to show rating
add to favorites
×
Save as Personal and add changes to this tab that will be seen only by you. Learn more ›
×
You can save this tab as Personal to edit and correct it or add notes. All changes will be seen only by you. Learn more »
launch autoscroll
font size
0
reset
how to read this tab
guitar tuner
backing track
0:00
0:00
edit
Autoscroll
slow
fast
+/-
esc
set tempo
stop
Ok so i found out that this song is actually 5 steps below standard tuning (BF#BEG#C#) 
it goes

|-------0-------0-------0---------0| 13x   Clean Intro
|-----0---------------0---0-----0--|
|---0-------0-------0---------0----|
|-2-------8-------7---------1------|
|----------------------------------|
|----------------------------------|
|                                  |
|----------------------------------| 9x    Distorted Intro (comes in after c-
|----------------------------------|       lean intro has been played 5x)
|----------------------------------|
|----------------------------------|
|2~~\8~7~~/1~~---------------------|
|2~~\8~7~~/1~~---------------------|

|--------------------------| 3x  in between intros. you can here when they co
|--------------------------|     me in when you listen to the song
|--------------------------|
|7-7--7-7--7--7-7-7--7-7-7-|
|5-5--5-5--5--5-5-5--5-5-5-|
|6-6--6-6--6--6-6-6--6-6-6-|

|----------------------------------------| 5x  Pre-verse
|----------------------------------------|
|----------------------------------------|
|----------------------------------------|
|----------------------------------------|
|0000000000--0-0000000000--0-0000000000--|
 ..........  . ..........  . ..........

|-------------------------------| 4x  verse
|-------------------------------|
|-------------------------------|
|-------------------------------|
|----------------------------5-4|
|023023023023023023023023023-3-2|
 ...........................

|-----------------------------------------------------------------| 1x Pre-
|-----------------------------------------------------------------|    Chorus
|-----------------------------------------------------------------|
|-----------------------------------------------------------------|
|--------------333333333333222222222--------------33333322222-----|
|22222222222222---------------------22222222222222-----------55555|
 .................................................................

|-----------------------------------------------| 4x Chorus
|-----------------------------------------------|
|-----------------------------------------------|
|-----------------------------------------------|
|----------------------------------------------5|
|0000000000--0-0000000000--0-0000000000-0-000003|
 ..........  . ..........  . .......... . .....

|----------------------------------------------------------------| 2x Backi-
|----------------------------------------------------------------|ng solo
|----------------------------------------------------------------|
|----------------------------------------------------------------|
|----------------------------------------------------------------|
|3333333322222222333333330000000022222222333333336666666655555555|
 ................................................................

Verse 4x
Pre-chorus 1x
Chorus 8x

|-----------------| 3x Backing solo
|-----------------|
|-----------------|
|-----------------|
|2-9-8-5-3-1-0-3-2|
|2-9-8-5-3-1-0-3-2|

Verse 4x
Pre-Chorus 1x

thats all i cud get. rate and enjoy

            
            
Suggest correction
Creating personal tab
Creating personal tab
You can edit any tab online and save it as your Personal.

You can edit, replace or remove any tab part or add personal notes – all changes will be seen only by you.

Personal tabs can be accessed anytime from any device, even offline.
Learn more »
Give kudos to tab author, rate the tab!
1 2 3 4 5
comments
print report bad tab
4 comments total. Showing first comments.
0 reply
sic006 81 Nov 28, 2009 07:25 PM

im pretty sure slayer doesnt play in drop b

+1 reply
metalelite7 56 Dec 01, 2009 09:32 AM

they probably dont. but if u put in it b tuning (BEADF#B from 6th to 1st string) and change the chords a little, then it wud be closer to the way they play it i think

0 reply
\,,/Slayer/,,/ 70 Dec 24, 2009 09:39 AM

if u guys wound get the christ illusion book ud find out the play in drop b.
songs like eyes of the insane is in drop b

guest
You may want to rate the tab now too:
select rating
Wanna post a correction for this tab? Suggest correction