Oops, an error
Loading. Please wait.

God Hates Us All album tab

version 1
version 1

Album

by Slayer
25,722 views 27 this week
no commentswrite comment
1 2 3 4 5
x 5
add to favorites
×
Save as Personal and add changes to this tab that will be seen only by you. Learn more ›
×
You can save this tab as Personal to edit and correct it or add notes. All changes will be seen only by you. Learn more »
launch autoscroll
font size
0
reset
how to read this tab
guitar tuner
edit
Autoscroll
slow
fast
+/-
esc
set tempo
stop
Author
Difficulty

Tabbed By: Brack

1. Darkness of Christ

Tuning Db


 RIFF 1 INTRO x1

|x3                     |x1
|-----------------------|-----------------------|
|-----------------------|-----------------------|
|-----------------------|-----------------------|
|-----------------------|-----------------------|
|-------2---2---2---2---|-------2---2---2-------|
|-1-3---0---0---0---0---|-1-3---0---0---0-------|
  . .   .   .   .   .     . .   .   .   .x



 RIFF 2A MAIN x1

|HANNEMAN x4
|------------------|
|------------------|
|------------------|
|------------------|
|------------------|
|-1-3-1-3-0-000000-|
  . . . . . ......


|BOTH x4
|------------------|
|------------------|
|------------------|
|------------------|
|------------------|
|-1-3-1-3-0-000000-|
  . . . . . ......



 FILL 1

|KING
|-17b--17b-17b-17b-212121212121212121--21fb^rb^^--|
|-20b--20b-20b-20b--------------------------------|
|-------------------------------------------------|
|-------------------------------------------------|
|-------------------------------------------------|
|-------------------------------------------------|
|
|
|HANNEMAN
|-------------------------------------------------|
|-------------------------------------------------|
|-------------------------------------------------|
|-------------------------------------------------|
|-------2---2---2---2---2---2---2---2---6666-6666-|
|-1-3---0---0---0---0---0---0---0---0---4444-4444-|
  . .   .   .   .   .   .   .   .   .



 SOLO KING
  WAH      WAH________________________________________________
|----------3-4-6-4-3-------------------------------------------|
|--------------------6-5-3-6-5-3-------------------------------|
|--------------------------------6-4-3-6-4-3-------------------|
|-x\\\\--------------------------------------5-3-2-5-3-2-------|
|-x\\\\--------------------------------------------------4-2-1-|
|--------------------------------------------------------------|

  WAH____________________________________ BAR      WAH & BAR N.H. BAR
|-------------------------------------------------------------------------|
|-------------------------------------------------------------------------|
|-3-4-6-4-3----------------------------------------0\\\\\\\\h7\\\\\\\\----|
|-----------5-3-2-5-3-2---------------------------------------------------|
|-----------------------4-2-1-4-2-1---------------------------------------|
|-----------------------------------3-1-0\\\\\\\\-------------------------|



 RIFF 2 x4 UNDER SOLO

|------------------|
|------------------|
|------------------|
|------------------|
|------------------|
|-1-3-1-3-0-000000-|
  . . . . . ......



 RIFF 1A VERSE x1

|x7                 |x1
|-------------------|------------|
|-------------------|------------|
|-------------------|------------|
|-------------------|------------|
|-------2---2---2---|-6666-6666--|
|-1-3---0---0---0---|-4444-4444--|
  . .   .   .   .



 RIFF 2 MAIN x4

 RIFF 1A VERSE x1

 RIFF 2 MAIN x3


 RIFF 3 BREAK x1

|---------------------------------------------------|
|---------------------------------------------------|
|---------------------------------------------------|
|---------------------------------------------------|
|-------2---2---2---4---4---4---4---4---4---4---4---|
|-1-3---0---0---0---6---6---6---6---6---6---6---6---|
  . .   .   .   .   .   .   .   .   .   .   .   .



 RIFF 4 INTERLUDE x4

|---------------|---------------|
|---------------|---------------|
|---------------|---------------|
|---------------|---------------|
|-------2---2---|-------2---2---|
|-0-1---0---0---|-1-3---0---0---|
  . .   .   .     . .   .   .



 FILL 1

|---------------|---------------|---------------|---------------|
|---------------|---------------|---------------|---------------|
|---------------|---------------|---------------|---------------|
|---------------|---------------|---------------|-----------2---|
|-------2---2---|-------5---5---|-------3---3---|-----------1---|
|-0-1---0---0---|-1-4---3---3---|-0-3---1---1---|-0-1-4-3-------|
  . .   .   .     . .   .   .     . .   .   .     . . . .



 RIFF 3A BREAK x1

|---------------------------------------------------|
|---------------------------------------------------|
|---------------------------------------------------|
|---------------------------------------------------|
|-------2---2---2---4---4---4---4---4---4---666666--|
|-1-3---0---0---0---6---6---6---6---6---6---444444--|
  . .   .   .   .   .   .   .   .   .   .



 RIFF 2 MAIN x8


 RIFF 3 END

|KING
|-17b^-17b-17b-17b-17b-17b-17b-17b-17fb^r-----------|
|-20b^-20b-20b-20b-20b-20b-20b-20b-20fb^r-----------|
|---------------------------------------------------|
|---------------------------------------------------|
|---------------------------------------------------|
|---------------------------------------------------|
|                                        x
|
|HANNEMAN
|---------------------------------------------------|
|---------------------------------------------------|
|---------------------------------------------------|
|---------------------------------------------------|
|-------2---2---2---2---2---2---2---2---2-----------|
|-1-3---0---0---0---0---0---0---0---0---0-----------|
                                         x

2. Disciple


Tuning Db


 RIFF 1 INTRO x1

|-------------------------|
|-------------------------|
|-------------------------|
|-------------------------|
|-5-2---5-8---7-2---------|
|-3-0---3-6---5-0---------|
                 x



 RIFF 2 MAIN x8

|---------------|
|---------------|
|---------------|
|---------9-----|
|-----------8-7-|
|-000-000-------|
  ... ...



 FILL 1

|----------------------|
|----------------------|
|----------------------|
|-9-----8-----7--------|
|---8-7---7-6----6-5---|
|----------------------|
                    x



 RIFF 3 VERSE x1


|---------------------------------|---------------------------------|
|---------------------------------|---------------------------------|
|---------------------------------|---------------------------------|
|---------------------------------|---------------------------------|
|---------------------------------|---------------------------------|
|-3-2-0-3-4-3-0-3-2-1-0-2-3-2-0-1-|-3-2-0-3-4-3-0-3-2-1-0-2-3-2-0-1-|
  . . . . . . . . . . . . . . . .   . . . . . . . . . . . . . . . .


|---------------------------------|---------------------------------|
|---------------------------------|---------------------------------|
|---------------------------------|---------------------------------|
|---------------------------------|---------------------------------|
|-3-2-0-3-4-3-0-3-2-1-0-2-3-2-0-1-|-3-2-0-3-4-3-0-3-2-1-0-2-3-2-0-1-|
|-3-2-0-3-4-3-0-3-2-1-0-2-3-2-0-1-|-3-2-0-3-4-3-0-3-2-1-0-2-3-2-0-1-|



|---------------------------------|---------------------------------|
|---------------------------------|---------------------------------|
|---------------------------------|---------------------------------|
|---------------------------------|---------------------------------|
|---------------------------------|---------------------------------|
|-3-2-0-3-4-3-0-3-2-1-0-2-3-2-0-1-|-3-2-0-3-4-3-0-3-2-1-0-2-3-2-0-1-|
  . . . . . . . . . . . . . . . .   . . . . . . . . . . . . . . . .



 RIFF 4 CHORUS x2

|KING x2
|---------------------------------|
|---------------------------------|
|---------------------------------|
|---------------------------------|
|---------------------------------|
|-000-000---------000-000---------|
| ... ...         ... ...
|
|HANNEMAN WITH DETUNE AND LIGHT FLANGER EFFECTS
|---------------------------------|
|-5555555555555555555555555555555-|
|---------------------------------|
|---------------------------------|
|---------------------------------|
|---------------------------------|



 RIFF 5 BRIDGE x2

|KING
|-----------------|-----------------|
|-----------------|-----------------|
|-----------------|-----------------|
|-----------------|-----------------|
|-3-3-6---2-2-2-2-|-3-3-5---2-2-2-2-|
|-1-1-4---0-0-0-0-|-1-1-3---0-0-0-0-|
|         . . . .           . . . .
|
|HANNEMAN
|KING
|-----------------|-----------------|
|-----------------|-----------------|
|-----------------|-----------------|
|-----------------|-----------------|
|-3-3-6-6-2-2-2-2-|-3-3-5-5-2-2-2-2-|
|-1-1-4-4-0-0-0-0-|-1-1-3-3-0-0-0-0-|
  . . . . . . . .   . . . . . . . .



 RIFF 3 VERSE x1


 RIFF 4A CHORUS x2

|KING x2
|---------------------------------|
|---------------------------------|
|---------------------------------|
|---------------------------------|
|---------------------------------|
|-000-000---------000-000---------|
| ... ...         ... ...
|
|HANNEMAN
|---------------------------------|
|---------------------------------|
|---------------------------------|
|---------------------------------|
|---------------------------------|
|-0-0-0-0-0-0-0-0-0-0-0-0-0-0-0-0-|
  . . . . . . . . . . . . . . . .



 RIFF 4 CHORUS x2

 RIFF 2 MAIN x8


 SOLO HANNEMAN
  A.H.   A.H.     WAH__________________________________________________
|-22b^^--22b^^----18-19-18-19-21-19-18----------15-16-18-16-15----------|
|--------------------------------------21-20-18----------------18-17-16-|
|-----------------------------------------------------------------------|
|-----------------------------------------------------------------------|
|-----------------------------------------------------------------------|
|-----------------------------------------------------------------------|

  WAH________________________________________________      WAH______________
|---------------------------------------------------------------------------
|-18-17-15------------------------------------------------------------------
|----------18-16-15-16-18-16-15---------------------------------------------
|-------------------------------17-15-14-17-15-14---------------------------
|-------------------------------------------------16b\\\\-------------------
|----------------------------------------------------------12-13-15-12-1315-

  WAH____________________________________________________________________
|-------------------------------------------------------------------------|
|-------------------------------------------------------15-17-18-15-17-18-|
|-------------------------------------15-16-18-15-16-18-------------------|
|-------------------14-15-17-14-15-17-------------------------------------|
|-13-14-16-13-14-16-------------------------------------------------------|
|-------------------------------------------------------------------------|

  WAH_________________________________________________________________
|-15-16-15-16-15-------------------------------------------------------|
|----------------18-17-15-18-17-15-------------------------------------|
|----------------------------------18-16-15-18-16-15-------------------|
|----------------------------------------------------17-15-14-17-15-14-|
|----------------------------------------------------------------------|
|----------------------------------------------------------------------|


|----------------------------------------------|
|----------------------------------------------|
|-------15-16b^^--16b^^^^^^^^------------------|
|-15-17----------------------------------------|
|----------------------------------------------|
|--------------------------------19\\\\\\\\----|




 RIFF 5A x4 UNDER SOLO

|-----------------|-----------------|
|-----------------|-----------------|
|-----------------|-----------------|
|-----------------|-----------------|
|-----6-----------|-----5-----------|
|-11114--00000000-|-11113--00000000-|
         ........          ........



 FILL 1 UNDER SOLO

|-----------------|-----------------|
|-----------------|-----------------|
|-----------------|-----------------|
|-----------------|-----------------|
|-3---------------|-----------------|
|-1---------------|-----------------|




 RIFF 6 BREAK x1

|KING
|-------------------------|-------------------------|
|-------------------------|-------------------------|
|-------------------------|-------------------------|
|-------------------------|-------------------------|
|-5-----5-----5-----------|-5-----5-----5-----------|
|-3-000-3-000-3-222222222-|-3-000-3-000-3-666666666-|
|   ...   ...   .........     ...   ...   .........
|
|HANNEMAN
| A.H.
|-------------------------|-------------------------|
|-------------------------|-------------------------|
|-0^^^^^^^^^^^^^^^^^^^^^^-|-(0)^^^^^^^^^^^^^^^^^^^^-|
|-------------------------|-------------------------|
|-------------------------|-------------------------|
|-------------------------|-------------------------|



|KING
|-------------------------|-------------------------|
|-------------------------|-------------------------|
|-------------------------|-------------------------|
|-------------------------|-------------------------|
|-5-----5-----5-----------|-5-----5-----5-----8-----|
|-3-000-3-000-3-222222222-|-3-000-3-000-3-66666-----|
|   ...   ...   .........     ...   ...   .... X
|
|HANNEMAN
| N.H.
|-------------------------|-------------------------|
|-------------------------|-------------------------|
|-------------------------|-------------------------|
|-------------------------|-------------------------|
|-5-----5-----------------|-5-----5-----5-----8-----|
|-3-----3-----------------|-3-----3-----3-----6-----|
   x     x                   x     x     x     x



 RIFF 7 VERSE x2

|x3                    |x1
|----------------------|----------------------|
|----------------------|----------------------|
|----------------------|----------------------|
|----------------------|----------------------|
|-----------------7777-|-7----6----2----3-----|
|-0000000000000000-----|-5555-4444-0000-11111-|
  ................       .... .... .... .....



 RIFF 8 CHORUS x2

|KING
|-----------------------------------------------|
|-----------------------------------------------|
|-----------------------------------------------|
|-----------------------------------------------|
|-222222-555555-444444-2-4-555-999-888888888888-|
|-000000-333333-222222-0-2-333-777-666666666666-|
|
|
|HANNEMAN
|-----------------------------------------------|
|-----------------------------------------------|
|-----------------------------------------------|
|-----------------------------------------------|
|-2------5------4------2-4-5---9---8------------|
|-0------3------2------0-2-3---7---6------------|



 RIFF 6A VERSE x3

|-------------------------|-------------------------|
|-------------------------|-------------------------|
|-------------------------|-------------------------|
|-------------------------|-------------------------|
|-5-----5-----5-----------|-5-----5-----5-----------|
|-3-000-3-000-3-222222222-|-3-000-3-000-3-666666666-|
    ...   ...   .........     ...   ...   .........



 RIFF 5A BRIDGE x4

 RIFF 8 CHORUS x2


 RIFF 8A CHORUS x1

|-----------------------------------------------|
|-----------------------------------------------|
|-----------------------------------------------|
|-----------------------------------------------|
|-2------5------4------2-4-5---9---8------------|
|-0------3------2------0-2-3---7---6------------|




 RIFF 9 OUTRO x1

|HANNEMAN
|---------------------------------|---------------------------------|
|---------------------------------|---------------------------------|
|---------------------------------|---------------------------------|
|---------------------------------|---------------------------------|
|-5-5-5-8-8-8-4-4-4-4-4-4-4-4-4-4-|-5-5-5-8-8-8-7-7-7-4-4-4-4-4-4-4-|
|-3-3-3-6-6-6-2-2-2-2-2-2-2-2-2-2-|-3-3-3-6-6-6-5-5-5-2-2-2-2-2-2-2-|
  . . . . . . . . . . . . . . . .   . . . . . . . . . . . . . . . .


|HANNEMAN
|---------------------------------|---------------------------------|
|---------------------------------|---------------------------------|
|---------------------------------|---------------------------------|
|---------------------------------|---------------------------------|
|-5-5-5-8-8-8-7-7-7-8-8-8-4-4-4-4-|-5-5-5-8-8-8-4-4-4-4-4-4-4-4-4-4-|
|-3-3-3-6-6-6-5-5-5-6-6-6-2-2-2-2-|-3-3-3-6-6-6-2-2-2-2-2-2-2-2-2-2-|
  . . . . . . . . . . . . . . . .   . . . . . . . . . . . . . . . .



 RIFF 9A OUTRO x1

|---------------------------------|---------------------------------|
|---------------------------------|---------------------------------|
|---------------------------------|---------------------------------|
|---------------------------------|---------------------------------|
|-5-5-5-8-8-8-4-4-4-4-4-4-4-4-4-4-|-5-5-5-8-8-8-7-7-7-4-4-4-4-4-4-4-|
|-3-3-3-6-6-6-2-2-2-2-2-2-2-2-2-2-|-3-3-3-6-6-6-5-5-5-2-2-2-2-2-2-2-|



|---------------------------------|---------------------------------|
|---------------------------------|---------------------------------|
|---------------------------------|---------------------------------|
|---------------------------------|---------------------------------|
|-5-5-5-8-8-8-7-7-7-8-8-8-4-4-4-4-|-5-5-5-8-8-8-4-4-4-4-4-4-4-4-4-4-|
|-3-3-3-6-6-6-5-5-5-6-6-6-2-2-2-2-|-3-3-3-6-6-6-2-2-2-2-2-2-2-2-2-2-|



|---------------------------------|---------------------------------|
|---------------------------------|---------------------------------|
|---------------------------------|---------------------------------|
|---------------------------------|---------------------------------|
|-5-5-5-8-8-8-4-4-4-4-4-4-4-4-4-4-|-5-5-5-8-8-8-7-7-7-4-4-4-4-4-4-4-|
|-3-3-3-6-6-6-2-2-2-2-2-2-2-2-2-2-|-3-3-3-6-6-6-5-5-5-2-2-2-2-2-2-2-|



|KING
|---------------------------------|---------------------------------|
|---------------------------------|---------------------------------|
|---------------------------------|---------------------------------|
|---------------------------------|---------------------------------|
|-5-5-5-8-8-8-7-7-7-8-8-8-4-4-4-4-|-5-5-5-8-8-8-4-4-4-4-4-4-4-4-----|
|-3-3-3-6-6-6-5-5-5-6-6-6-2-2-2-2-|-3-3-3-6-6-6-2-2-2-2-2-2-2-2-----|
|                                               . . . . . . . .x
|
|HANNEMAN
|---------------------------------|---------------------------------|
|---------------------------------|---------------------------------|
|---------------------------------|---------------------------------|
|---------------------------------|---------------------------------|
|-5-5-5-8-8-8-7-7-7-8-8-8-4-4-4-4-|-5-5-5-8-8-8-4-4-4-4-4-4-4-4-----|
|-3-3-3-6-6-6-5-5-5-6-6-6-2-2-2-2-|-3-3-3-6-6-6-2-2-2-2-2-2-2-2-----|
                                                    . . . . . .x


3. God Send Death

Tuning Db


 RIFF 1 INTRO x1

|KING
|-----------------------------------|-----------------------------------|
|-----------------------------------|-----------------------------------|
|-----------------------------------|-----------------------------------|
|-----------------------------------|-----------------------------------|
|-----------------------------------|---------------------------3-3---3-|
|-----------------------------------|---------------------------1-1---1-|
|                                                               . .   .
|
|HANNEMAN
|-----------------------------------|-----------------------------------|
|-----------------------------------|-----------------------------------|
|-----------------------------------|-----------------------------------|
|---------------------9---8---------|--------------------10---9---------|
|-7---7---8--10---7---7---7---8-----|-7---7---8--10---7---7---7-3-3---3-|
|-0---0---0---0---0---0---0---0-----|-0---0---0---0---0---0---0-1-1---1-|
                                                                . .   .


|KING
|-----------------------------------|-----------------------------------|
|-----------------------------------|-----------------------------------|
|-----------------------------------|-----------------------------------|
|-----------------------------------|-----------------------------------|
|-2----------------------6--5--3----|-----------------6-5-3-5-610-99-6--|
|-0----------------------4--3--1----|-----------------4-3-1-3-4-8-77-4--|
|                               x
|
|HANNEMAN
|-----------------------------------|-----------------------------------|
|-----------------------------------|-----------------------------------|
|-----------------------------------|-----------------------------------|
|---------------------9-------------|-----------------------------------|
|-2---7---8--10---7---7--6--5--3----|-7---7---8--10---6-5-3-5-610-99-6--|
|-0---0---0---0---0---0--4--3--1----|-0---0---0---0---4-3-1-3-4-8-77-4--|
                                x



 FILL 1 x3

|KING
|-------------------------------|
|-------------------------------|
|-------------------------------|
|-------------------------------|
|-2-2---2-2---2-2---2-2---2-2---|
|-0-0---0-0---0-0---0-0---0-0---|
| . .x  . .x  . .x  . .x  . .x
|
|HANNEMAN WITH TREMOLO AND FLANGER EFFECTS
|-------------------------------|
|-------------------------------|
|-------------------------------|
|-------------------------------|
|-7-----------------------------|
|-0-----------------------------|




 RIFF 2 VERSE x1

|x2
|-------------------------------------------------|
|-------------------------------------------------|
|-------------------------------------------------|
|-------------------------9--9--9--9--8--8--------|
|-7--7--7--7--8--8-10-10--7--7--7--7--7--7--8--8--|
|-0--0--0--0--0--0--0--0--0--0--0--0--0--0--0--0--|
  .  .  .  .  .  .  .  .  .  .  .  .  .  .  .  .


|x1
|-------------------------------------------------|
|-------------------------------------------------|
|-------------------------------------------------|
|-------------------------9--9--9--9--------------|
|-7--7--7--7--8--8-10-10--7--7--7--7--8--8-10-10--|
|-0--0--0--0--0--0--0--0--0--0--0--0--0--0--0--0--|
  .  .  .  .  .  .  .  .  .  .  .  .  .  .  .  .



 RIFF 3 CHORUS x1

|-------------------------|-------------------------|
|-------------------------|-------------------------|
|-------------------------|-------------------------|
|-------9^^^^-------------|-------9^^^^-8^^^^-------|
|-7^^^^-------8^^^^10^^^^-|-7^^^^-------------8^^^^-|
|---000---000---000---000-|---000---000---000---000-|
    ...   ...   ...   ...     ...   ...   ...   ...


|-------------------------|-------------------------|
|-------------------------|-------------------------|
|-------------------------|-------------------------|
|-------9^^^^-------------|------10^^^^-9^^^^-------|
|-7^^^^-------8^^^^10^^^^-|-7^^^^-------------8-----|
|---000---000---000---000-|---000---000---000-6-----|
    ...   ...   ...   ...     ...   ...   ...



 RIFF 4 BRIDGE x8

|--------------------------------|
|--------------------------------|
|--------------------------------|
|---------------7-8^^------------|
|-7---8p7---7---------9-8-5b^^---|
|-0---0-----0--------------------|




 RIFF 2 VERSE x1

 RIFF 3 CHORUS x1

 RIFF 4 BRIDGE x7


 FILL 2

|--------------------------------|
|--------------------------------|
|--------------------------------|
|--------------------------------|
|-7---8p7---7---6---5---3--------|
|-0---0-----0---4---3---1--------|
                         x



 FILL 3

|KING WITH PHASER EFFECT
| WAH   WAH   WAH WAH   WAH WAH
|-------------------------------------|
|-------------------------------------|
|-------------------------------------|
|-------------------------------------|
|-5-----2-----4---8-----7-------------|
|-3-----0-----2---6-----5---12\\\\----|




 RIFF 5 INTERLUDE x4

|-------------------------------------------------|
|-------------------------------------------------|
|-------------------------------------------------|
|-------------------------------------------------|
|-5--5--5--2--2--4--4--5--8--8--8--7--7--7--7--7--|
|-3--3--3--0--0--2--2--3--6--6--6--5--5--5--5--5--|
  .  .  .  .  .  .  .  .  .  .  .  .  .  .  .  .



 FILL 3A

|KING WITH PHASER EFFECT
| WAH   WAH   WAH WAH   WAH   WAH WAH  WAH   WAH
|------------------------------------------------------------------|
|------------------------------------------------------------------|
|------------------------------------------------------------------|
|------------------------------------------------------------------|
|-5-----2-----4---5-----2-----4---5----2-----4---6-5-3-5-610-99-6--|
|-3-----0-----2---3-----0-----2---3----0-----2---4-3-1-3-4-8-77-4--|
|
|
|HANNEMAN                                        N.H.
|------------------------------------------------------------------|
|------------------------------------------------5////////\/\/\\---|
|------------------------------------------------5////////\/\/\\---|
|------------------------------------------------------------------|
|-5-----2-----4---5-----2-----4---5----2-----4---------------------|
|-3-----0-----2---3-----0-----2---3----0-----2---------------------|




 SOLO 1 HANNEMAN
  WAH    WAH      WAH_______________________________________________
|-----------------------------------20-21-23-21-20-------------------|
|-23b^^--23b^^----20-22-23-20-22-23----------------23-22-20-23-22-20-|
|--------------------------------------------------------------------|
|--------------------------------------------------------------------|
|--------------------------------------------------------------------|
|--------------------------------------------------------------------|

  WAH____________________________________        WAH______________
|----------------------------------------------|-------------------|
|----------------------------------------------|-------------------|
|-23-21-20-23-21-20----------------------------|-------------------|
|-------------------22-20-19-22-20-19-17b^^\\--|-------------------|
|----------------------------------------------|-------------------|
|----------------------------------------------|-11-12-14-11-12-14-|
                                                 .. .. .. .. .. ..
  WAH____________________________________________________________________
|-------------------------------------------------------------------------|
|-------------------------------------------------------14-16-17-14-16-17-|
|-------------------------------------14-15-17-14-15-17-------------------|
|-------------------13-14-16-13-14-16-------------------------------------|
|-12-13-15-12-13-15-------------------------------------------------------|
|-------------------------------------------------------------------------|
  .. .. .. .. .. ..
  WAH__________________________________________        WAH_________________
|-14-15-17-15-14-------------------------------------|-15-17-18-17-15-------|
|----------------17-16-14-17-16-14----------16b^^----|----------------17-16-|
|----------------------------------17-15-14-15b^^----|----------------------|
|----------------------------------------------------|----------------------|
|----------------------------------------------------|----------------------|
|----------------------------------------------------|----------------------|

  WAH_______________________________________________________________________
|----15-17-18-17-15----------15-17-18-17-15----------15-17-18-17-15----------|
|-17----------------17-16-17----------------17-16-17----------------17-16-17-|
|----------------------------------------------------------------------------|
|----------------------------------------------------------------------------|
|----------------------------------------------------------------------------|
|----------------------------------------------------------------------------|

  WAH_____________________________________________    WAH
|-15-17-18-17-15----------15-17-18-17-15-------------------------|
|----------------17-16-17----------------17-16-17b^^--17b^^^^----|
|----------------------------------------------------------------|
|----------------------------------------------------------------|
|----------------------------------------------------------------|
|----------------------------------------------------------------|

  WAH____________________________________________________________________
|-------------------------------------------------------------------------|
|-------------------------------------------------------------------------|
|-------------------------------------------------------------------------|
|----------------------------13-14-16----------------------------16-17-19-|
|----------12-13-15-12-13-15-------------------15-16-18-15-16-18----------|
|-11-12-14----------------------------14-15-17----------------------------|
  .. .. .. .. .. ..                   .. .. .. .. .. ..
  WAH_________________________________________________________________
|----------------------------17-18-17-18-17----------------------------|
|-------------------17-19-20----------------20-19-17-20-19-17----------|
|-17-18-20-17-18-20-------------------------------------------20-18-17-|
|----------------------------------------------------------------------|
|----------------------------------------------------------------------|
|----------------------------------------------------------------------|

  WAH        WAH & BAR N.H. BAR   N.H. BAR
|------------------------------------------------|
|-19b^^^^-------------------------5////\/\/\\----|
|-18b^^^^----0\\\\\\\\h6///\\\\---5////\/\/\\----|
|------------------------------------------------|
|------------------------------------------------|
|------------------------------------------------|




 RIFF 6 x4 UNDER SOLO 1

|-------------------------|-------------------------|
|-------------------------|-------------------------|
|-------------------------|-------------------------|
|-------------------------|-------------------------|
|-------4-----3-----------|-------------7-----5-----|
|-2-222---222---222-5-222-|-2-222-6-222-55555-33333-|
    ...   ...   ...   ...     ...   ...  ....  ....



 RIFF 7 x3 UNDER SOLO 1

|-----------------|
|-----------------|
|-----------------|
|-----------------|
|-----------------|
|-3-2-0-2-0-2-0-2-|
  . . . . . . . .



 SOLO 2 KING
  WAH____________________________________________________________________
|-21-20-18----------20-18-17----------21-20-18----------20-18-17----------|
|----------20-19-17----------20-19-17----------20-19-17----------20-19-17-|
|-------------------------------------------------------------------------|
|-------------------------------------------------------------------------|
|-------------------------------------------------------------------------|
|-------------------------------------------------------------------------|

  WAH____________________________________________________ BAR
|-21-20-18----------21-20-18-------------------------------------|
|----------20-19-17----------20-19-17-20-19-17-------------------|
|----------------------------------------------20-18-17-0\\\\----|
|----------------------------------------------------------------|
|----------------------------------------------------------------|
|----------------------------------------------------------------|

  WAH____________________________________________________________________
|-------------------------------------------------------------------------|
|-------------------------------------------------------------------------|
|-------------------------------------------------------14-15-17-14-15-17-|
|-------------------------------------13-14-16-13-14-16-------------------|
|-------------------12-13-15-12-13-15-------------------------------------|
|-11-12-14-11-12-14-------------------------------------------------------|

  WAH____________________________________________________________________
|-------------------14-15-17-14-15-17-15-17-18-15-17-18-17-18-20-17-18-20-|
|-14-16-17-14-16-17-------------------------------------------------------|
|-------------------------------------------------------------------------|
|-------------------------------------------------------------------------|
|-------------------------------------------------------------------------|
|-------------------------------------------------------------------------|

             WAH & BAR      WAH & BAR     WAHBAR WAHBAR WAHBAR WAHBARS.H. BAR
|-21b^^^^---------------------------------------------------------------------|
|-----------------------------------------------------------------------------|
|------------0\\\\//\\\\\\--12//\/\/\/\\--8/\/\\-6/\/\\-5/\/\\-0\\\\h3\\\\\\--|
|-----------------------------------------------------------------------------|
|-----------------------------------------------------------------------------|
|-----------------------------------------------------------------------------|




 RIFF 6A x1 UNDER SOLO 2

|-------------------------|-------------------------|
|-------------------------|-------------------------|
|-------------------------|-------------------------|
|-------------------------|-------------------------|
|-------4-----3-----7-----|-4-----8-----7-----5-----|
|-2-222---222---222-55555-|-22222-66666-55555-33333-|
    ...   ...   ...  ....    ....  ....  ....  ....


|-------------------------|-------------------------|
|-------------------------|-------------------------|
|-------------------------|-------------------------|
|-------------------------|-------------------------|
|-------4-----3-----7-----|-4-----8-----7-----5-----|
|-2-222---222---222-55555-|-22222-66666-55555-3-----|
    ...   ...   ...  ....    ....  ....  ....



 RIFF 7 x4 UNDER SOLO 2


 SOLO 3 HANNEMAN

|OVER SOLO 2 |
| N.H.       |                   WAH_________________________________________
|------------|-23b^^--23b^^^^----20-21-20-21-23-21-20----------17-18-17-18-20-|
|------------|----------------------------------------23-22-20----------------|
|-3^^^^^^----|----------------------------------------------------------------|
|------------|----------------------------------------------------------------|
|------------|----------------------------------------------------------------|
|------------|----------------------------------------------------------------|

  WAH_______________________________________________________________
|-18-17-----------------------------------------------------------------|
|-------20-19-17-20-19-17-----------------------------------------------|
|-------------------------20-18-17-20-18-17----------------17-18-20b^^--|
|-------------------------------------------19-17-16-17-19--------------|
|-----------------------------------------------------------------------|
|-----------------------------------------------------------------------|

  WAH & BAR N.H. BAR
|-------------------------------|
|-------------------------------|
|-0\\\\\\\\h3\\\////\\\\\\\\----|
|-------------------------------|
|-------------------------------|
|-------------------------------|



 RIFF 6B x1 UNDER SOLO 3

|-------------------------|-------------------------|
|-------------------------|-------------------------|
|-------------------------|-------------------------|
|-------------------------|-------------------------|
|-------4-----3-----------|-------------7-----------|
|-2-222---222---222-5-222-|-2-222-6-222-55555-3b^^^-|
    ...   ...   ...   ...     ...   ...  ....


 RIFF 7 x3 UNDER SOLO 3


 SOLO 4 KING
  WAH______________________________________________________________
|-------------------------------------------------------------------|
|-------------------------------------------------------------------|
|-8-11-8-11-8-11-9-12-9-12-9-12-10-13-10-13-10-13-11-14-11-14-11-14-|
|-------------------------------------------------------------------|
|-------------------------------------------------------------------|
|-------------------------------------------------------------------|


|-------------------------------------------------------------|
|-------------------------------------------------------------|
|-12-15-13-16-14-17-15-18-16-19-17-20-18-21-19-22-20-23-21-24-|
|-------------------------------------------------------------|
|-------------------------------------------------------------|
|-------------------------------------------------------------|


|OVER CHORUS
| WAH & BAR                     WAH________
|----------------------------------------------|
|----------------------------------------------|
|-0\\\\DEPRESS GRADUALLY\\\\-------------------|
|----------------------------------------------|
|-------------------------------15///21\\\7----|
|----------------------------------------------|
                                           x



 RIFF 6C UNDER SOLO 4

|-------------------------|-------------------------|
|-------------------------|-------------------------|
|-------------------------|-------------------------|
|-------------------------|-------------------------|
|-------4-----3-----7-----|-4-----8-----7-----5-----|
|-2-222---222---222-55555-|-22222-66666-55555-33333-|
    ...   ...   ...  ....    ....  ....  ....  ....



 RIFF 3A CHORUS x1

|-------------------------|-------------------------|
|-------------------------|-------------------------|
|-------------------------|-------------------------|
|-------9^^^^-------------|-------9^^^^-8^^^^-------|
|-7^^^^-------8^^^^10^^^^-|-7^^^^-------------8^^^^-|
|---000---000---000---000-|---000---000---000---000-|
    ...   ...   ...   ...     ...   ...   ...   ...


|-------------------------|-------------------------|
|-------------------------|-------------------------|
|-------------------------|-------------------------|
|-------9^^^^-------------|-------------------------|
|-7^^^^-------8^^^^10^^^^-|-8---8---8---8---8---8---|
|---000---000---000---000-|-6---6---6---6---6---6---|
    ...   ...   ...   ...



 RIFF 3 CHORUS x1

 RIFF 4 BRIDGE x3

 FILL 2 END


4. New Faith

Tuning Db


 RIFF 1 INTRO x1

|KING
|---------------------------------|
|---------------------------------|
|---------------------------------|
|---------------------------------|
|-----------------3-----6-----5---|
|-0-0-0-0-0-0-0-0-1---0-4---0-3---|
  . . . . . . . .     .     .


|KING
|---------------------------------|
|---------------------------------|
|---------------------------------|
|---------------------------------|
|-----------------3-----6-----5---|
|-0-0-0-0-0-0-0-0-1---0-4---0-3---|
| . . . . . . . .     .     .
|
|HANNEMAN
|---------------------------------|
|---------------------------------|
|---------------------------------|
|---------------------------------|
|---------------------------------|
|----------------------------15\\-|



 RIFF 1A VERSE x6

|---------------------------------|
|---------------------------------|
|---------------------------------|
|---------------------------------|
|-----------------3-----6-----5---|
|-0-0-0-0-0-0-0-0-1---0-4---0-3---|
  . . . . . . . .     .     .



 RIFF 2 BRIDGE x2

|-----------------------------------------------------|
|-----------------------------------------------------|
|-----------------------------------------------------|
|-----------------------------------------------------|
|-----------------------------------------------------|
|-2-4-5-2-4-5-2-4-5-2-4-5-2-4-5-2-4-5-2-4-5-0-2-4-5-4-|
  . . . . . . . . . . . . . . . . . . . . . . . . . .



 RIFF 3 CHORUS x1

|x3
|-----------------------------------------------------------------|
|-----------------------------------------------------------------|
|-----------------------------------------------------------------|
|-----------------------------------------------------------------|
|-7-8-5---7-8-5---7-8-5---7-8-5---7-8-5---7-8-5---7-8-5---3---6---|
|-0-0-0-0-0-0-0-0-0-0-0-0-0-0-0-0-0-0-0-0-0-0-0-0-0-0-0-0-1---4---|
      . .     . .     . .     . .     . .     . .     . .


|-----------------------------------------------------------------|
|-----------------------------------------------------------------|
|-----------------------------------------------------------------|
|-----------------------------------------------------------------|
|-7-8-5---7-8-5---7-8-5---7-8-5---7-8-5---7-8-5---6-6-6-6-6-6-6-6-|
|-0-0-0-0-0-0-0-0-0-0-0-0-0-0-0-0-0-0-0-0-0-0-0-0-4-4-4-4-4-4-4-4-|
      . .     . .     . .     . .     . .     . .


|----------------|
|----------------|
|----------------|
|----------------|
|-6\\\\----------|
|-4\\\\----------|




 RIFF 1A VERSE x4

 RIFF 2 BRIDGE x1


 RIFF 3A CHORUS x1

|x3
|-----------------------------------------------------------------|
|-----------------------------------------------------------------|
|-----------------------------------------------------------------|
|-----------------------------------------------------------------|
|-7-8-5---7-8-5---7-8-5---7-8-5---7-8-5---7-8-5---7-8-5---3---6---|
|-0-0-0-0-0-0-0-0-0-0-0-0-0-0-0-0-0-0-0-0-0-0-0-0-0-0-0-0-1---4---|
      . .     . .     . .     . .     . .     . .     . .


|-----------------------------------------------------------------|
|-----------------------------------------------------------------|
|-----------------------------------------------------------------|
|-----------------------------------------------------------------|
|-2---------------------------------------------------------------|
|-0---------------------------------------------------------------|
   x



 SOLO KING
  WAH     WAHBARN.H. BAR   WAH & BAR/\/\/\/\/\/\/\/\/\/\/\/\/\/\/\/\/\/\/\
|--------------------------------------------------------------------------|
|--------------------------------------------------------------------------|
|-x\\\\---0\\\\h4/\/\/\\---7p6p0h7p6p0h7p6p0h6p4p0h6p4p0h6p4p0h4p3p0h4p3p0-|
|-x\\\\--------------------------------------------------------------------|
|--------------------------------------------------------------------------|
|--------------------------------------------------------------------------|

  WAH & BAR/\/\/\/\/\/\/\/\/\/\/\/\/\/\/\/\/\/\/\/\/\/\/\/\/\/\/\
|-----------------------------------------------------------------|
|-----------------------------------------------------------------|
|-h4p3p0h7p6p0h7p6p0h7p6p0h10p9p0h10p9p0h10p9p0h9p7p0h9p7p0h9p7p0-|
|-----------------------------------------------------------------|
|-----------------------------------------------------------------|
|-----------------------------------------------------------------|

  WAH & BAR/\/\/\/\/\/\/\/\/\/\/\/\/\/\/\/\/\/\/\/\/\/\_ BAR    WAH & BAR
|---------------------------------------------------------------------------
|---------------------------------------------------------------------------
|-h7p6p0h7p6p0h7p6p0h6p4p0h6p4p0h6p4p0h4p3p0h4p3p0h4p3p0\\\\\\--------------
|---------------------------------------------------------------0////////\\
|---------------------------------------------------------------------------
|---------------------------------------------------------------------------




 RIFF 4 x2 UNDER SOLO

|------------------------------------------------------------------|
|------------------------------------------------------------------|
|------------------------------------------------------------------|
|------------------------------------------------------------------|
|-5---------------5---------------5---------------5----------8-----|
|-3-0000-653-0000-3-0000-653-0000-3-0000-653-0000-3-0000-653-6-----|
    .... ... ....   .... ... ....   .... ... ....   .... ...



 RIFF 4A VERSE x1

|------------------------------------------------------------------|
|------------------------------------------------------------------|
|------------------------------------------------------------------|
|------------------------------------------------------------------|
|-5---------------5---------------5---------------5----------8-----|
|-3-0000-653-0000-3-0000-653-0000-3-0000-653-0000-3-0000-653-6-----|
    .... ... ....   .... ... ....   .... ... ....   .... ...


|------------------------------------------------------------|
|------------------------------------------------------------|
|------------------------------------------------------------|
|------------------------------------------------------------|
|-5---------------5---------------5---------------5----------|
|-3-0000-653-0000-3-0000-653-0000-3-0000-653-0000-3-0000-653-|
    .... ... ....   .... ... ....   .... ... ....   .... ...



 RIFF 5 CHORUS x1

|-------------------------------------------------------|
|-------------------------------------------------------|
|-------------------------------------------------------|
|-------------------------------------------------------|
|-8---7----------5---8---8---7----------8---7---8---5---|
|-6---5---555555-3---6---6---5---555555-6---5---6---3---|
          ......                 ......


|-------------------------------------------|
|-------------------------------------------|
|-------------------------------------------|
|-------------------------------------------|
|--------5---8---8---7----------6---3---6---|
|-555555-3---6---6---5---555555-4---1---4---|
  ......                 ......



 RIFF 4B BREAK x1

|------------------------------------------------------------------|
|------------------------------------------------------------------|
|------------------------------------------------------------------|
|------------------------------------------------------------------|
|-5---------------5---------------5---------------5------8---------|
|-3-0000-653-0000-3-0000-653-0000-3-0000-653-0000-3-0000-6---------|
    .... ... ....   .... ... ....   .... ... ....   ....  x



 RIFF 4A VERSE x1


 RIFF 5A CHORUS x1

|-------------------------------------------------------|
|-------------------------------------------------------|
|-------------------------------------------------------|
|-------------------------------------------------------|
|-8---7----------5---8---8---7----------8---7---8---5---|
|-6---5---555555-3---6---6---5---555555-6---5---6---3---|
          ......                 ......


|------------------------------------------------------|
|------------------------------------------------------|
|------------------------------------------------------|
|------------------------------------------------------|
|--------5---8---8---7----------6---3---6---5----------|
|-555555-3---6---6---5---555555-4---1---4---3---000000-|
  ......                 ......                 ......



 RIFF 6 CHORUS x4

|------------------------|
|------------------------|
|------------------------|
|------------------------|
|-6---3---6---5----------|
|-4---1---4---3---000000-|
                  ......



 FILL 1

|----------------------------|
|----------------------------|
|----------------------------|
|----------------------------|
|-6---3---3---2-----3333-----|
|-4---1---1---0-----1111-----|
                        x



 RIFF 7 OUTRO x1

|KING
|-------------------------------|
|-------------------------------|
|-------------------------------|
|-------------------------------|
|-2-----3-3---6-5-2-----3-3-----|
|-0-----1-1---4-3-0-----1-1-----|
|                          x
|
|HANNEMAN
|-------------------------------|
|-------------------------------|
|-------------------------------|
|---------------------------3---|
|---------------------------1---|
|-------------------------------|
                             x


|KING x4
|-------------------------------|
|-------------------------------|
|-------------------------------|
|-------------------------------|
|-2-----3-3---6-5-2-----3-3-----|
|-0-----1-1---4-3-0-----1-1-----|
|                          x
|
|HANNEMAN x4
|-------------------------------|
|-------------------------------|
|-------------------------------|
|---------------------------3---|
|-2-----3-3---6-5-2-----3-3-1---|
|-0-----1-1---4-3-0-----1-1-----|
                             x


|KING
|-------------------------------|
|-------------------------------|
|-------------------------------|
|-------------------------------|
|-2-----3-3---6-5-2-----2-3-----|
|-0-----1-1---4-3-0-----0-1-----|
|                          x
|
|HANNEMAN
|-------------------------------|
|-------------------------------|
|-------------------------------|
|-------------------------------|
|-2-----3-3---6-5-2-----2-3-----|
|-0-----1-1---4-3-0-----0-1-----|
                           x
5. Cast Down

Tuning B (7 Strings King & 6 Strings low tuned Hanneman)


 RIFF 1 INTRO x1

|KING
|---------------------------------|---------------------------------|
|---------------------------------|---------------------------------|
|---------------------------------|---------------------------------|
|---------------------------------|---------------------------------|
|---------------------------------|---------------------------------|
|-8-------8-------7-------6-------|-8-------7-------6-------6-------|
|-6-0-0-0-6-0-0-0-5-0-0-0-4-0-0-0-|-6-0-0-0-5-0-0-0-4-0-0-0-4-0-0-0-|
    . . .   . . .   . . .   . . .     . . .   . . .   . . .   . . .


|BOTH
|---------------------------------|---------------------------------|
|---------------------------------|---------------------------------|
|---------------------------------|---------------------------------|
|---------------------------------|---------------------------------|
|---------------------------------|---------------------------------|
|-8-------8-------7-------6-------|-8-------7-------6-------5-6-----|
|-6-0-0-0-6-0-0-0-5-0-0-0-4-0-0-0-|-6-0-0-0-5-0-0-0-4-0-0-0-3-4-----|
    . . .   . . .   . . .   . . .     . . .   . . .   . . .


|BOTH
|---------------------------------|---------------------------------|
|---------------------------------|---------------------------------|
|---------------------------------|---------------------------------|
|---------------------------------|---------------------------------|
|---------------------------------|---------------------------------|
|-8-------8-------7-------6-------|-8-------7-------6-------6-------|
|-6-0-0-0-6-0-0-0-5-0-0-0-4-0-0-0-|-6-0-0-0-5-0-0-0-4-0-0-0-4-0-0-0-|
    . . .   . . .   . . .   . . .     . . .   . . .   . . .   . . .


|BOTH
|---------------------------------|---------------------------------|
|---------------------------------|---------------------------------|
|---------------------------------|---------------------------------|
|---------------------------------|---------------------------------|
|---------------------------------|---------------------------------|
|-8-------8-------7-------6-------|-8-------7-------6-------5-6-----|
|-6-0-0-0-6-0-0-0-5-0-0-0-4-0-0-0-|-6-0-0-0-5-0-0-0-4-0-0-0-3-4-----|
    . . .   . . .   . . .   . . .     . . .   . . .   . . .



 RIFF 2 INTRO x2

|-------------------------------------------------|
|-------------------------------------------------|
|-------------------------------------------------|
|-------------------------------------------------|
|-------------------------------------------------|
|-2-2---3-2---2-2---3-2---2-2---3-2---7-6---2-3---|
|-0-0---1-0---0-0---1-0---0-0---1-0---5-4---0-1---|




 RIFF 3 BREAK x1

|-------------------------------------------------|
|-------------------------------------------------|
|-------------------------------------------------|
|-------------------------------------------------|
|-------------------------------------------------|
|-2-2---2-2---2-2---2-2---2-2---2-2---2-2---------|
|-0-0---0-0---0-0---0-0---0-0---0-0---0-0---------|
     x     x     x     x     x     x     x



 RIFF 4 VERSE x4

|-------------------------|
|-------------------------|
|-------------------------|
|-------------------------|
|-3-----------------------|
|-1-2---------------------|
|---0-0-0-0--0-0-0--1-1-1-|
      . . .  . . .  . . .



 RIFF 5 VERSE x4

|-------------------------|-------------------------|
|-------------------------|-------------------------|
|-------------------------|-------------------------|
|-------------------------|-------------------------|
|-3-----------------------|-3-----------------------|
|-1-2---------5-2---------|-1-2---------5-2---3---5-|
|---0-0-0-0-0-3-0-0-0-0-0-|---0-0-0-0-0-3-0---1---3-|
      . . . .     . . . .       . . . .



 FILL 1

|-------------------------------------|
|-------------------------------------|
|-------------------------------------|
|-------------------------------------|
|-------------------------------------|
|-2-------3---2-------3---2h3-2h3-2h3-|
|-0-------1---0-------1---0h1-0h1-0h1-|




 RIFF 5 VERSE x4


 RIFF 6 BRIDGE x5

|-------------------|-------------------|
|-------------------|-------------------|
|-------------------|-------------------|
|-------------------|-------------------|
|-----3---2---------|-------------------|
|-2---1---0---2-----|-5---8-7-5-2-5-4---|
|-0-----------0-----|-3---6-5-3-0-3-2---|




 RIFF 2 CHORUS x2

 RIFF 3A BREAK x1

|-------------------------------------|
|-------------------------------------|
|-------------------------------------|
|-------------------------------------|
|-------------------------------------|
|-2-2---2-2---2-2---2-2---2-2---2-2---|
|-0-0---0-0---0-0---0-0---0-0---0-0---|
     x     x     x     x     x     x


 SOLO KING
  WAH & BAR WAH & BAR/\/\/\/\/\/\/\/\/\/\/\/\ WAH & BAR        WAH & BAR
|-------------------------------------------------------------------------|
|-------------------------------------------------------------------------|
|-------------------------------------------------------------------------|
|-0\\\\\\\\h4p2p0h4p2p0h4p2p0h5p4p0h5p4p0h5p4p0////\\\\\\\\----4p2p04p2p0-|
|-------------------------------------------------------------------------|
|-------------------------------------------------------------------------|
|-------------------------------------------------------------------------|

  WAH & BAR/\/\/\/\/\/\/\ BAR     WAH_________________________ WAH & BAR
|---------------------------------------------------------------------|
|---------------------------------------------------------------------|
|---------------------------------------------------------------------|
|-h4p2p0h5p4p0h5p4p0h5p4p0\\\\---/7fb^^^7^7^7^^7^7^7^^7^7^7^^rp0\\\\--|
|---------------------------------------------------------------------|
|---------------------------------------------------------------------|
|---------------------------------------------------------------------|
                                         x x x  x x x  x x
  WAH & BAR/\ WAH & BAR/\/\ WAH & BAR/\/\/\ WAH__________      N.H. BAR
|------------------------------------------------------------------------------|
|------------------------------------------------------------------------------|
|------------------------------------------------------------------------------|
|-5h7h8p5h7h8-7h8h10p7h8h10-8h10h11p8h10h11-131313131313b^^^^//15//\/\/\/\\----|
|------------------------------------------------------------------------------|
|------------------------------------------------------------------------------|
|------------------------------------------------------------------------------|




 RIFF 7 x8 UNDER SOLO

|---------------------------------|
|---------------------------------|
|---------------------------------|
|---------------------------------|
|-2-2-----------------------------|
|-0-0-----------------------------|
  .



 RIFF 3A BREAK x1


 RIFF 4 VERSE x4

 RIFF 5 VERSE x4


 FILL 1A

|-----------------------------------------|
|-----------------------------------------|
|-----------------------------------------|
|-----------------------------------------|
|-----------------------------------------|
|-2-------3---2-------3---2h3-2h3-2h3-2h3-|
|-0-------1---0-------1---0h1-0h1-0h1-0h1-|




 RIFF 6 BRIDGE x8

 RIFF 2 CHORUS x2

 RIFF 3 BREAK x1

6. Threshold

 Tuning Db


 RIFF 1 INTRO x1

|KING
|-----------------------------------------|
|-----------------------------------------|
|-----------------------------------------|
|-----------------------------------------|
|-----------------------------------------|
|-2-1-0-1-0---2-1-0---2-1-0-1-0---2-1-0---|
  . . . . .   . . .   . . . . .   . . .


|BOTH
|-----------------------------------------|
|-----------------------------------------|
|-----------------------------------------|
|-----------------------------------------|
|-----------------------------------------|
|-2-1-0-1-0---2-1-0---2-1-0-1-0---2-1-0---|
  . . . . .   . . .   . . . . .   . . .



 RIFF 2 BRIDGE x6

|-----------------------------------|
|-----------------------------------|
|-----------------------------------|
|-----------------------------------|
|-4-3-2-3-2---4-3-2-3-4-2-4-2-3-----|
|-2-1-0-1-0---2-1-0-1-2-0-2-0-1-----|



 RIFF 1A VERSE x4

|-----------------------------------------------------------------|
|-----------------------------------------------------------------|
|-----------------------------------------------------------------|
|-----------------------------------------------------------------|
|-----------------------------------------------------------------|
|-2-1-0-1-0---2-1-0---2-1-0-1-0-1-0---2-1-0---2-1-0-1-0---2-0-1---|
  . . . . .   . . .   . . . . . . .   . . .   . . . . .   . . .



 RIFF 3 BRIDGE x5

|KING
|-----------------------------------|
|-----------------------------------|
|-----------------------------------|
|-----------------------------------|
|-3-2---2-3-2---2-3-2---2---2-3-----|
|-1-0---0-1-0---0-1-0---0---0-1-----|
  . .   . . .   . . .   .   .



 FILL 1

|KING
|-----------------------------------|
|-----------------------------------|
|-----------------------------------|
|-----------------------------------|
|-3-2---2-3-2---2-3-2---2---2-3-----|
|-1-0---0-1-0---0-1-0---0---0-1-----|
| . .   . . .   . . .   .   .
|
|HANNEMAN
| N.H. BAR
|-----------------------------------|
|-4//\\\\\\//////////\//\//---------|
|-----------------------------------|
|-----------------------------------|
|---------------------------x\\\\---|
|-----------------------------------|





 RIFF 4 CHORUS x8

|-----------------------------------|
|-----------------------------------|
|-----------------------------------|
|-----------------------------------|
|-3-2---2---2---2-3---3-2---2-3-----|
|-1-0---0---0---0-1---1-0---0-1-----|
  . .   .   .   .     . .   .



 RIFF 1 BREAK x1

 RIFF 1A VERSE x4

 RIFF 3 BRIDGE x1


 FILL 2

|KING
|-----------------------------------|
|-----------------------------------|
|-----------------------------------|
|-----------------------------------|
|-3-2---2-3-2---2-3-2---2---2-3-----|
|-1-0---0-1-0---0-1-0---0---0-1-----|
| . .   . . .   . . .   .   .
|
|HANNEMAN
| N.H. BAR
|-----------------------------------|
|-5//\\\\\\//////////\//\//---------|
|-5//\\\\\\//////////\//\//---------|
|-----------------------------------|
|---------------------------x\\\\---|
|-----------------------------------|



 RIFF 4 CHORUS x8

 RIFF 2 OUTRO x8

7. Exile
Tuning Db


 RIFF 1 INTRO x1

|KING
|-------------------------|-------------------------|
|-------------------------|-------------------------|
|-------------------------|-------------------------|
|-------------------------|-------------------------|
|-------------------------|-------------------------|
|-000-000-00000-000-00000-|-000-000-00000-000-00000-|
  ... ... ..... ... .....   ... ... ..... ... .....


|BOTH
|-------------------------|-------------------------|
|-------------------------|-------------------------|
|-------------------------|-------------------------|
|-------------------------|-------------------------|
|-------------------------|-------------------------|
|-000-000-00000-000-00000-|-000-000-00000-000-00000-|
  ... ... ..... ... .....   ... ... ..... ... .....


|BOTH
|-------------------------|-------------------------|
|-------------------------|-------------------------|
|-------------------------|-------------------------|
|-------------------------|---------------------3---|
|-------------------------|---------------------1---|
|-000-000-00000-000-00000-|-000-000-00000-000-0-----|
  ... ... ..... ... .....   ... ... ..... ... .




 RIFF 2 VERSE x1

|-------------------------|-------------------------|
|-------------------------|-------------------------|
|-------------------------|-------------------------|
|-------------------------|-------------------------|
|-8h11p8------------------|-8h11p8------------------|
|---------00000-000-00000-|---------00000-000-00000-|
          ..... ... .....           ..... ... .....


|-------------------------|-------------------------|
|-------------------------|-------------------------|
|-------------------------|-------------------------|
|-------------------------|-------------43----54----|
|-8h11p8------------------|-8h11p8------21-54-32-65-|
|---------00000-000-00000-|---------000----32----43-|
          ..... ... .....           ... .. .. .. ..


|-------------------------|-------------------------|
|-------------------------|-------------------------|
|-------------------------|-------------------------|
|-------------------------|-------------------------|
|-8h11p8------------------|-8h11p8------------------|
|---------00000-000-00000-|---------00000-000-00000-|
          ..... ... .....           ..... ... .....


|-------------------------|-------------------------|
|-------------------------|-------------------------|
|-------------------------|-------------------------|
|-------------------------|-------------------------|
|-8h11p8------------------|-8h11p8-----------1p0----|
|---------00000-000-00000-|---------00000-013---3-2-|
          ..... ... .....           ..... ...   . .



 RIFF 3 BRIDGE x2

|---------------------------------|---------------------------------|
|---------------------------------|---------------------------------|
|---------------------------------|---------------------------------|
|---------------------------------|---------------------------------|
|-3---------------3-----3-----3---|-3---------------3-----3-----6-5-|
|-1-0-0-0-0-0-0-0-1-0-0-1-0-0-1-0-|-1-0-0-0-0-0-0-0-1-0-0-1-0-0-4-3-|
    . . . . . . .   . .   . .   .     . . . . . . .   . .   . .


|---------------------------------|---------------------------------|
|---------------------------------|---------------------------------|
|---------------------------------|---------------------------------|
|---------------------------------|---------------------------------|
|-3---------------3-----3-----3---|-3---------------3-------1-0-----|
|-1-0-0-0-0-0-0-0-1-0-0-1-0-0-1-0-|-1-0-0-0-0-0-0-0-1-0-1-3-----3-2-|
    . . . . . . .   . .   . .   .     . . . . . . .   . . .     . .



 RIFF 4 BREAK x1

|---------------------|---------------------|
|---------------------|---------------------|
|---------------------|---------------------|
|---------------------|---------------------|
|-2-----------1-0-----|-2-----------1-0-----|
|-0-----0-1-3-----3-2-|-2-----0-1-3-----3-2-|
        . . .     . .         . . .     . .



 RIFF 1A CHORUS x1

|-------------------------|-------------------------|
|-------------------------|-------------------------|
|-------------------------|-------------------------|
|-------------------------|-------------------------|
|-------------------------|-------------------------|
|-000-000-00000-000-00000-|-000-000-00000-000-00000-|
  ... ... ..... ... .....   ... ... ..... ... .....


|-------------------------|-------------------------|
|-------------------------|-------------------------|
|-------------------------|-------------------------|
|-------------------------|-------------------------|
|-------------------------|-----------------2-------|
|-000-000-00000-000-00000-|-000-000-000000000-------|
  ... ... ..... ... .....   ... ... ........ x



 RIFF 2 VERSE x1

 RIFF 3 BRIDGE x2


 RIFF 4A BREAK x1

|---------------------|---------------------|
|---------------------|---------------------|
|---------------------|---------------------|
|---------------------|---------------------|
|-2-----------1-0-----|-2-----------1-0-----|
|-0-----0-1-3-----3-2-|-2-----0-1-3-----3-2-|
        . . .     . .         . . .     . .


|---------------------|---------------------|
|---------------------|---------------------|
|---------------------|---------------------|
|---------------------|---------------------|
|-2-----------1-0-----|-3-----------1-0-----|
|-0-----0-1-3-----3-2-|-3-----0-1-3-----3-2-|
        . . .     . .         . . .     . .



 SOLO 1 HANNEMAN

|OVER RIFF4A LAST PART|
| N.H. BAR            |  WAH & BAR  WAH & BAR WAH & BAR/\/\/\/\/\/\/\
|---------------------|-//19/\/\\--//18/\/\\--18h21p19p18\16h19p18p16-|
|-5//\\\//////////----|-----------------------------------------------|
|-5//\\\////x---------|-----------------------------------------------|
|---------------------|-----------------------------------------------|
|---------------------|-----------------------------------------------|
|---------------------|-----------------------------------------------|

  WAH & BAR/\/\/\/\/\/\/\/\/\  WAH & BAR/\/\\ WAH & BAR/\/\/\/\/\/\/\/\\
|-\15h18p16p15\13h16p15p13\12--12h13h15p13p12----------------------------|
|---------------------------------------------15p14p12h15p14p12h15p14p12-|
|------------------------------------------------------------------------|
|------------------------------------------------------------------------|
|------------------------------------------------------------------------|
|------------------------------------------------------------------------|

  WAH & BAR WAH & BAR      N.H. BAR    WAH___    WAH_______________________
|---------------------------------------------------------------------------
|--------------------------12//\\\\\--///12b\\\--------------------12-14-15-
|-15p13p12--0//\\\\\\\\----12//\\\\\-------------12-13-15-12-13-15----------
|---------------------------------------------------------------------------
|---------------------------------------------------------------------------
|---------------------------------------------------------------------------

  WAH_________________________________________________________________
|----------------------------12-13-15-13-12----------------------------|
|-12-14-15-12-14-15-12-14-15----------------15-14-12-15-14-12----------|
|-------------------------------------------------------------15-13-12-|
|----------------------------------------------------------------------|
|----------------------------------------------------------------------|
|----------------------------------------------------------------------|

  WAH______________  WAH   WAH     WAH WAH       WAH__________________
|-------------------------------------------------------------------------|
|-------------------------------------------------------------------------|
|-15-13-12-----------9b^^--8b^^^^-----------------------------9--8--------|
|----------14-12-11----------------10^-9b^^^^-------------10--------9b^^--|
|------------------------------------------------11-10-11-----------------|
|-------------------------------------------------------------------------|

  WAH____________________________________________________________________
|-------------------------------------------------------------------------|
|-------------------------------------------------------------------------|
|-------------------------------------------------------15-16-18-15-16-18-|
|-------------------------------------14-15-17-14-15-17-------------------|
|-------------------13-14-16-13-14-16-------------------------------------|
|-12-13-15-12-13-15-------------------------------------------------------|

  WAH______________________________________________________
|-------------------------------------------------------------------------|
|--------------------------------------------------------17b^^^^----------|
|--------------------------------------15-16-18-15-16-18-16b^^^^----------|
|--------------------14-15-17-14-15-17------------------------------------|
|--13-14-16-13-14-16------------------------------------------------------|
|-------------------------------------------------------------------------|




 RIFF 5 x1 UNDER SOLO 1

|x3
|-------------------------------------------------------|
|-------------------------------------------------------|
|-7\\---------------------------------------------------|
|-5\\---------------------------------------------------|
|-5\\-2-2---2-2---2-2---2-2---2-2---2-2---------1-0-----|
|-----0-0---0-0---0-0---0-0---0-0---0-0---0-1-3-----3-2-|
      . .x  . .x  . .x  . .x  . .x  . .x  . . .     . .


|x1
|---------------------------|---------------------------|
|---------------------------|---------------------------|
|-7\\-----------------------|-7\\-----------------------|
|-5\\-----------------------|-5\\-----------------------|
|-5\\-2-------------1-0-----|-5\\-2-------------1-0-----|
|-----0-------0-1-3-----3-2-|-----0-------0-1-3-----3-2-|
              . . .     . .               . . .     . .



 SOLO 2 KING
  WAH     WAH                              WAH____     WAH_________
|-------------------------------------------------------------------|
|------------------------------------------14//17b^^---17b17171717r-|
|---------------------x\\\\\\\\\\\\\\\\----13//16b^^---16b16161616r-|
|---------------------x\\\\\\\\\\\\\\\\-----------------------------|
|-------------------------------------------------------------------|
|-7b^^^^--6b^^^^^^--------------------------------------------------|

  WAH_________ WAH_____ WAH_____   WAH_________ WAH_________ WAH_____
|---------------------------------------------------------------------|
|-17b17171717r-17b1717r-17b1717r---17b17171717r-17b17171717r-17b1717r-|
|-16b16161616r-16b1616r-16b1616r---16b16161616r-16b16161616r-16b1616r-|
|---------------------------------------------------------------------|
|---------------------------------------------------------------------|
|---------------------------------------------------------------------|

  WAH_____            WAH_______ WAH   WAH_ WAH_    WAH_________ WAH_________
|-----------------------------------------------------------------------------|
|-17b1717r-17b1717r--------------7b^^-----7----7^---17b17171717r-17b17171717r-|
|-16b1616r-16b1616r---1010101010-------10---10------16b16161616r-16b16161616r-|
|-----------------------------------------------------------------------------|
|-----------------------------------------------------------------------------|
|-----------------------------------------------------------------------------|

  WAH_____ WAH_____   WAH_________ WAH_________ WAH_____ WAH_____ WAH_____
|---------------------------------------------------------------------------
|-17b1717r-17b1717r---17b17171717r-17b17171717r-23b2323r-22b2222r-20b2020r--
|-16b1616r-16b1616r---16b16161616r-16b16161616r-22b2222r-21b2121r-19b1919r--
|---------------------------------------------------------------------------
|---------------------------------------------------------------------------
|---------------------------------------------------------------------------

  WAH__ WAH   WAH BAR  WAH________________________________________________
|--------------------------------------------------------------------------|
|-77777--------------------------------------------------------------------|
|-------7b^^---------------------------------------------------------------|
|-------------9-0\\\\------------------------------------11-12-14-11-12-14-|
|--------------------------------------10-11-13-10-11-13-------------------|
|----------------------9-10-12-9-10-12-------------------------------------|

  WAH__________________________________________________  WAH___________
|-------------------------------------12-13-15-12-13-15--12-13-16-13-12-|
|-------------------12-14-15-12-14-15-----------------------------------|
|-12-13-15-12-13-15-----------------------------------------------------|
|-----------------------------------------------------------------------|
|-----------------------------------------------------------------------|
|-----------------------------------------------------------------------|

  WAH___________  WAH___________  WAH___________  WAH & BAR    WAH___________
|-13-15-16-15-13--13-15-18-15-13--13-15-16-15-13--------------13-15-1615-13--|
|---------------------------------------------------------------------------
|-------------------------------------------------0\\\\\\\\-----------------
|---------------------------------------------------------------------------
|---------------------------------------------------------------------------
|---------------------------------------------------------------------------

  WAH___________  WAH___________  WAH___________  WAH___________
|-13-15-18-15-13--15-16-18-16-15--15-16-19-16-15--16-18-19-18-16--|
|-----------------------------------------------------------------|
|-----------------------------------------------------------------|
|-----------------------------------------------------------------|
|-----------------------------------------------------------------|
|-----------------------------------------------------------------|

  WAH___________  WAH___________                 A.H.
|-16-18-21-18-16--18-19-21-19-18--222222fb^^^^r--22b^^^^^^^^----|
|---------------------------------------------------------------|
|---------------------------------------------------------------|
|---------------------------------------------------------------|
|---------------------------------------------------------------|
|---------------------------------------------------------------|


      N.H. BAR              N.H. BAR
|-24--------------------24--------------------|
|-----22////\//\//\\--------22////\//\//\\----|
|---------------------------------------------|
|---------------------------------------------|
|---------------------------------------------|
|---------------------------------------------|




 RIFF 6 x4 UNDER SOLO 2

|-------------------------------------------------|
|-------------------------------------------------|
|-------------------------------------------------|
|-------------------------------------------------|
|-2-2-2-2-2---2-2-2---2-2-2-2-2---2-2-2---2-2-2---|
|-0-0-0-0-0---0-0-0---0-0-0-0-0---0-0-0---0-0-0---|
  . . . . .   . . .   . . . . .   . . .   . . .


|-------------------------------------------------|
|-------------------------------------------------|
|-------------------------------------------------|
|-------------------------------------------------|
|-2-2-2-2-2---2-2-2---2-2-2-2-2-----------1-0-----|
|-0-0-0-0-0---0-0-0---0-0-0-0-2-----0-1-3-----3-2-|
  . . . . .   . . .   . . . .       . . .     . .



 FILL 1 UNDER SOLO 2

|-------------------------------------------------|
|-------------------------------------------------|
|-------------------------------------------------|
|-------------------------------------------------|
|-2-2-2-2-2---2-2-2---2-2-2-2-2---2-2-2---2-2-2---|
|-0-0-0-0-0---0-0-0---0-0-0-0-0---0-0-0---0-0-0---|
  . . . . .   . . .   . . . . .   . . .   . . .



|-------------------------|
|-------------------------|
|-------------------------|
|-------------------------|
|-2-2-2-2-2---2-2-2---2-2-|
|-0-0-0-0-0---0-0-0---0-0-|
  . . . . .   . . .   . .



 RIFF 1B UNDER SOLO 2

|-------------------------|-------------------------|
|-------------------------|-------------------------|
|-------------------------|-------------------------|
|-------------------------|-------------------------|
|-------------------------|-------------------------|
|-000-000-00000-000-00000-|-000-000-00000-000-00000-|
  ... ... ..... ... .....   ... ... ..... ... .....


|-------------------------|-------------------------|
|-------------------------|-------------------------|
|-------------------------|-------------------------|
|-------------------------|-------------------------|
|-------------------------|-------------------------|
|-000-000-00000-000-00000-|-000-000-00000-000-00000-|
  ... ... ..... ... .....   ... ... ..... ... .....



 RIFF 1C CHORUS x1

|-------------------------|-------------------------|
|-------------------------|-------------------------|
|-------------------------|-------------------------|
|-------------------------|-------------------------|
|-------------------------|-------------------------|
|-000-000-00000-000-00000-|-000-000-00000-000-00000-|
  ... ... ..... ... .....   ... ... ..... ... .....


|-------------------------|-------------------------|
|-------------------------|-------------------------|
|-------------------------|-------------------------|
|-------------------------|-------------------------|
|-----------------2-------|-------------------------|
|-000-000-000000000-------|-------------------------|
  ... ... ........ x



 RIFF 7 VERSE x4

|---------------------------|---------------------------|
|---------------------------|---------------------------|
|---------------------------|---------------------------|
|---------------------------|---------------------------|
|-------6\5-----------------|-------6\5-------6\5-3-3-3-|
|-000-0-4\3-000-0-0-000-0-0-|-000-0-4\3-000-0-4\3-1-1-1-|
  ... .     ... . . ... . .   ... .     ... .



 RIFF 8 BRIDGE x1

|x3
|-----------------------------|-----------------------------|
|-----------------------------|-----------------------------|
|-----------------------------|-----------------------------|
|-----------------------------|-----------------------------|
|---------------------1-0-----|-----------------1-0---------|
|-000-3-4-1-000-0-1-3-----3-2-|-000-3-4-1-0-1-3-----3-2-000-|
  ... . . . ... . . .     . .   ... . . . . . .     . . ...


|-----------------------------|-------------------------|
|-----------------------------|-------------------------|
|-----------------------------|-------------------------|
|-----------------------------|-------------------------|
|---------------------1-0-----|-----------------1-0-----|
|-000-3-4-1-000-0-1-3-----3-2-|-000-3-4-1-0-1-3-----3-2-|
  ... . . . ... . . .     . .   ... . . . . . .     . .



 RIFF 5A OUTRO

|x2
|-------------------------------------------------------|
|-------------------------------------------------------|
|-7\\---------------------------------------------------|
|-5\\---------------------------------------------------|
|-5\\-2-2---2-2---2-2---2-2---2-2---2-2---------1-0-----|
|-----0-0---0-0---0-0---0-0---0-0---0-0---0-1-3-----3-2-|
                                          . . .     . .


|-------------------------------------------------------|
|-------------------------------------------------------|
|-7\\---------------------------------------------------|
|-5\\---------------------------------------------------|
|-5\\-2-2---2-2---2-2---2-2---2-2---2-2---------1-0-----|
|-----0-0---0-0---0-0---0-0---0-0---0-0---0-1-3-----3-2-|
      . .x  . .x  . .x  . .x  . .x  . .x  . . .     . .

       BAR               BAR
|-------------------------------------------------------|
|-------------------------------------------------------|
|-7\\---------------------------------------------------|
|-5\\---------------------------------------------------|
|-5\\-2\\\\\\\///////---2\\\\\\\///////---------1-0-----|
|-----0\\\\\\\///////---0\\\\\\\///////---0-1-3-----3-2-|
                                          . . .     . .


       BAR               BAR
|-------------------------------------------------------|
|-------------------------------------------------------|
|-7\\---------------------------------------------------|
|-5\\---------------------------------------------------|
|-5\\-2\\\\\\\\\\\\\\---2\\\\\\\\\\\\\\---------1-0-----|
|-----0\\\\\\\\\\\\\\---0\\\\\\\\\\\\\\---0-1-3-----3-2-|
                                          . . .     . .



 FILL 2 END

|---------------------------------|
|---------------------------------|
|---------------------------------|
|---------------------------------|
|-2-2-2-2-2---2-2-2---2-2-2-2-----|
|-0-0-0-0-0---0-0-0---0-0-0-0-----|
  . . . . .   . . .   . . . .x

8. Seven Faces

Tuning B (7 Strings King & 6 Strings low tuned Hanneman)


 RIFF 1 INTRO x6

|KING CLEAN WITH SOME FLANGER AND CHORUS EFFECTS
|---------------|---------------|
|---------------|---------------|
|---------------|---------------|
|-----2---------|-----2---------|
|-------2-3-----|-------2-3-2---|
|---------------|---------------|
|-0-------------|-0-------------|




 RIFF 2 BREAK x4

|-------------------------|
|-------------------------|
|-------------------------|
|-------------------------|
|-------------------------|
|-7-7-7-6---3-6---3-6---3-|
|-5-5-5-4---1-4---1-4---1-|




 RIFF 3 VERSE x2

|---------------------------------|---------------------------------|
|---------------------------------|---------------------------------|
|---------------------------------|---------------------------------|
|---------------------------------|---------------------------------|
|---------------------------------|---------------------------------|
|---------------------------------|-----------------------------3---|
|-3-1-0-1-4-3-0-1-0-3-0-1-4-3-0-1-|-3-1-0-1-4-3-0-1-0-3-0-1-4-3-1---|
  . . . . . . . . . . . . . . . .   . . . . . . . . . . . . . .


|---------------------------------|---------------------------------|
|---------------------------------|---------------------------------|
|---------------------------------|---------------------------------|
|---------------------------------|---------------------------------|
|---------------------------------|---------------------------------|
|---------------------------------|-------------------------4---4---|
|-3-1-0-1-4-3-0-1-0-3-0-1-4-3-0-1-|-3-1-0-1-4-3-0-1-0-3-0-1-2---2---|
  . . . . . . . . . . . . . . . .   . . . . . . . . . . . .



 RIFF 4 BRIDGE x4

|-------------------------------------|
|-------------------------------------|
|-------------------------------------|
|-------------------------------------|
|-------------------------------------|
|-2---4---3-----2-2---2---5---4---2-3-|
|-0---2---1-----0-0---0---3---2---0-1-|
                   x



 RIFF 3 VERSE x1


 RIFF 4A BRIDGE x2

|-------------------------------------|
|-------------------------------------|
|-------------------------------------|
|-------------------------------------|
|-------------------------------------|
|-2---4---3-----2-2---2---5---4---2-3-|
|-0---2---1-----0-0---0---3---2---0-1-|
                   x


|-------------------------------------|
|-------------------------------------|
|-------------------------------------|
|-------------------------------------|
|-------------------------------------|
|-2---4---3-----2-2---2---5---4---3---|
|-0---2---1-----0-0---0---3---2---1---|
                   x



 RIFF 5 CHORUS x4

|-----------------------------|
|-----------------------------|
|-----------------------------|
|-----3-2---------------------|
|-2---1-0---2-6---5---2-3-3-3-|
|-0---------0-4---3---0-1-1-1-|




 FILL 1

|-----------------------------|
|-----------------------------|
|-----------------------------|
|-----------------------------|
|-----------------------------|
|-2---------------------------|
|-0---------------------------|




 RIFF 1 BREAK x4


 RIFF 1A BREAK x4

|KING CLEAN WITH SOME FLANGER AND CHORUS EFFECTS
|---------------|---------------|
|---------------|---------------|
|---------------|---------------|
|-----2---------|-----2---------|
|-------2-3-----|-------2-3-2---|
|---------------|---------------|
|-0-------------|-0-------------|
|
|
|HANNEMAN
|---------------|---------------|
|---------------|---------------|
|---------------|---------------|
|---------------|---------------|
|-2-------------|---------------|
|-0-------------|---------------|




 SOLO KING
  WAH    WAH    WAH      WAH    WAH & BAR  WAH    WAH    WAH & BAR/\/\/\/\
|--------------------------------------------------------------------------|
|--------------------------------------------------------------------------|
|-18b^^--18b^^--18b^^^^--------------------18b^^--18b^^--------------------|
|-18b^^--18b^^--18b^^^^--16b^^--0\\\\\\\\--18b^^--18b^^--12h14p12h14p12h14-|
|--------------------------------------------------------------------------|
|--------------------------------------------------------------------------|
|--------------------------------------------------------------------------|

  WAH & BAR WAH & BAR       WAH______________________________________
|---------------------------------------------------------------4-5-7-|
|---------------------------------------4-6-7-4-6-7-4-6-7-4-6-7-------|
|---------------------------4-5-7-4-5-7-------------------------------|
|-p12h14p12-16b///\/\/\\----------------------------------------------|
|---------------------------------------------------------------------|
|---------------------------------------------------------------------|
|---------------------------------------------------------------------|

  WAH________ WAH & BAR/\  WAH & BAR  WAH & BAR/\/\/\/\/\/\/\/\/\/\/\/\/\
|-7-5-4-------------------------------------------------------------------|
|-------7-6-4-------------------------------------------------------------|
|-------------5p4p0h5p4p0-------------5p4p0h5p4p0h5p4p0h5p4p0h5p4p0h5p4p0-|
|--------------------------0\\\\\\\\--------------------------------------|
|-------------------------------------------------------------------------|
|-------------------------------------------------------------------------|
|-------------------------------------------------------------------------|

                                          |OVER BRIDGE
      N.H. BAR   WAH & BAR                | N.H. BAR
|-----------------------------------------|--------------------------|
|-----------------------------------------|-4////\\\\\\\\\\\\\\\\----|
|-h5//7//\/\/\\---------------------------|--------------------------|
|----------------0\\\\\\\\\\\\------------|--------------------------|
|-----------------------------------------|--------------------------|
|-----------------------------------------|--------------------------|
|-----------------------------------------|--------------------------|




 RIFF 4 x4 UNDER SOLO

 RIFF 4A BRIDGE x2

 RIFF 5 CHORUS x5


 RIFF 5A CHORUS x1

|-----------------------------|
|-----------------------------|
|-----------------------------|
|-----3-2---------------------|
|-2---1-0---2-6---5---2-3-3---|
|-0---------0-4---3---0-1-1---|
                        . .x



 RIFF 3 OUTRO x1


 RIFF 3A OUTRO x1

|---------------------------------|---------------------------------|
|---------------------------------|---------------------------------|
|---------------------------------|---------------------------------|
|---------------------------------|---------------------------------|
|---------------------------------|---------------------------------|
|---------------------------------|-------------------------2---2---|
|-3-1-0-1-4-3-0-1-0-3-0-1-4-3-0-1-|-3-1-0-1-4-3-0-1-0-3-0-1-2---2---|
  . . . . . . . . . . . . . . . .   . . . . . . . . . . . .


|---------------------------------|---------------------------------|
|---------------------------------|---------------------------------|
|---------------------------------|---------------------------------|
|---------------------------------|---------------------------------|
|---------------------------------|---------------------------------|
|-------------------------2---2---|-------------------------2---2---|
|-3-1-0-1-4-3-0-1-0-3-0-1-2---2---|-3-1-0-1-4-3-0-1-0-3-0-1-2---2---|
  . . . . . . . . . . . .           . . . . . . . . . . . .




 FILL 1 END

|-------------------|
|-------------------|
|-------------------|
|-------------------|
|-------------------|
|---------2-2-2-2---|
|-1-3-0-1-2-2-2-2---|
  . . . .        x

9. Bloodline

Tuning Db


 RIFF 1A INTRO x2

|KING
|-------------------------|
|-------------------------|
|-------------------------|
|-------------------------|
|-2---2-2---2-1---1-0---0-|
|-0---0-3---3-2---2-1---1-|




 RIFF 1 INTRO x1

|---------------------------------|---------------------------------|
|---------------------------------|---------------------------------|
|---------------------------------|---------------------------------|
|---------------------------------|---------------------------------|
|-2-----2-2-----2-1-----1-0-----0-|-2-----2-2-----2-1-----2-4-5---3-|
|-0-----0-3-----3-2-----2-1-----1-|-0-----0-3-----3-2-----0-2-3---1-|
                                                               x


|x2
|---------------------------------|---------------------------------|
|---------------------------------|---------------------------------|
|---------------------------------|---------------------------------|
|---------------------------------|---------------------------------|
|-2-----2-2-----2-1-----2-4-5---3-|-2-----2-2-----2-1-----2-4-5---3-|
|-0-----0-3-----3-2-----0-2-4---1-|-0-----0-3-----3-2-----0-2-3---1-|
                             x                                 x



 RIFF 2A INTO VERSE x2

|KING
|---------------------------------|
|---------------------------------|
|---------------------------------|
|---------------------------------|
|---------------------------------|
|-1-0-0---0---1-1-0-0-0---1-0-0---|
  . . .   .   . . . . .   . . .



 RIFF 2 VERSE x4

|x3                               |x1
|---------------------------------|---------------------------------|
|---------------------------------|---------------------------------|
|---------------------------------|---------------------------------|
|---------------------------------|---------------------------------|
|---------------------------------|-------------2---3---6---5---8---|
|-1-0-0---0---1-1-0-0-0---1-0-0---|-1-0-0---0---0---1---4---3---6---|
  . . .   .   . . . . .   . . .     . . .   .



 RIFF 1B CHORUS x1

|---------------------------------|---------------------------------|
|---------------------------------|---------------------------------|
|---------------------------------|---------------------------------|
|---------------------------------|---------------------------------|
|-2-----2-2-----2-1-----1-0-----0-|-2-----2-2-----2-1-----2-4-5---3-|
|-0-----0-3-----3-2-----2-1-----1-|-0-----0-3-----3-2-----0-2-3---1-|
                                                               x


|---------------------------------|---------------------------------|
|---------------------------------|---------------------------------|
|---------------------------------|---------------------------------|
|---------------------------------|---------------------------------|
|-2-----2-2-----2-1-----1-0-----0-|-2-----2-2-----2-1-----2-4-5-----|
|-0-----0-3-----3-2-----2-1-----1-|-0-----0-3-----3-2-----0-2-3-----|
                                                               x



 RIFF 2A VERSE x4

|---------------------------------|---------------------------------|
|---------------------------------|---------------------------------|
|---------------------------------|---------------------------------|
|---------------------------------|---------------------------------|
|---------------------------------|-------------2---3---6---5---8---|
|-1-0-0---0---1-1-0-0-0---1-0-0---|-1-0-0---0---0---1---4---3---6---|
  . . .   .   . . . . .   . . .     . . .   .



 RIFF 1B CHORUS x1


 RIFF 3 BREAK x1

|KING x2
|-------------------------------------|
|-------------------------------------|
|-------------------------------------|
|-------------------------------------|
|-------------------------------------|
|-0-1---4---3---2---2-3---6---5---4---|
| . .   .   .   .   . .   .   .   .
|
|HANNEMAN x2
|-------------------------------------|
|-------------------------------------|
|-------------------------------------|
|-------------------------------------|
|-0-1---4---3---2---2-3---6---5---4---|
|-------------------------------------|
  . .   .   .   .   . .   .   .   .


|KING
|-------------------------------------|
|-------------------------------------|
|-------------------------------------|
|-------------------------------------|
|-----------------------------5-------|
|-0-1---4---3---2---2-3---6---5-------|
| . .   .   .   .   . .   .    x
|
|HANNEMAN
|-------------------------------------|
|-------------------------------------|
|-------------------------------------|
|-------------------------6-----------|
|-0-1---4---3---2---2-3---6---5-------|
|-----------------------------5-------|
  . .   .   .   .   . .   .    x




 RIFF 3A INTERLUDE x8

|-------------------------------------|
|-------------------------------------|
|-------------------------------------|
|-------------------------------------|
|-2-3---6---5---4-----5---8---7---6---|
|-0-1---4---3---2-----3---6---5---4---|
  . .



 SOLO KING
  WAH     WAH     N.H._ WAH & BAR/\/\/\/\/\/\/\ BAR  WAH   N.H._____
|---------------------------------------------------------------------|
|---------------------------------------------------------------------|
|----------------------------------------------------------3-2-2-1-1--|
|-x\\\\---x\\\\---------2h3p2p0h3p2p0h3p2p0h3p0\\\\--x\\\\-3-2-2-1-1--|
|-x\\\\---x\\\\---5-5-5------------------------------x\\\\------------|
|-----------------5-5-5-----------------------------------------------|
                  . . .                                    . . . . .
  WAH     WAH        WAH & BAR/\/\/\/\          N.H.___  WAH     WAH
|------------------------------------------------------------------------|
|------------------------------------------------------------------------|
|--------------------4p3p0h4p3p0h4p3p0-----------------------------------|
|-x\\\\---------------------------------x\\\\---3-3-3-3--x\\\\---x\\\\---|
|-x\\\\---x\\\\\\\\---------------------x\\\\---3-3-3-3--x\\\\---x\\\\---|
|---------x\\\\\\\\------------------------------------------------------|
                                                . . . .
  N.H.___  WAH & BAR/\/\/\/\/\/\/\/\/\/\/\/\/\/\/\/\/\/\/\ N.H.___   WAH
|---------------------------------------------------------------------------
|---------------------------------------------------------------------------
|---------------------------------------------------------------------------
|----------3p2p0h3p2p0h5p3p0h5p3p0h3p2p0h3p2p0h6p5p0h6p5p0-3-3-3-3---x\\\\--
|-5-5-5-5--------------------------------------------------3-3-3-3---x\\\\--
|-5-5-5-5-------------------------------------------------------------------
  . . . .                                                  . . . .
  WAH & BAR   WAH    N.H. BAR N.H. BAR
|-------------------------------------------------|
|------------//22b^^-22\\\\---22////\/\/\\\\\\----|
|-0\\\\\\\\-------------------22////\/\/\\\\\\----|
|-------------------------------------------------|
|-------------------------------------------------|
|-------------------------------------------------|




 RIFF 3B x8 UNDER SOLO

|-------------------------------------|
|-------------------------------------|
|-------------------------------------|
|-------------------------------------|
|-3-5---7---6---5-----6---7---8---7---|
|-1-3---5---4---3-----4---5---6---5---|
  . .



 RIFF 2B BREAK x1

|---------------------------------|---------------------------------|
|---------------------------------|---------------------------------|
|---------------------------------|---------------------------------|
|---------------------------------|---------------------------------|
|---------------------------------|---------------------------------|
|-2-1-1---1---2-2-1-1-1---2-1-1---|-2-1-1---1---2-2-1-1-1---2-1-----|
  . . .   .   . . . . .   . . .     . . .   .   . . . . .   . .x



 RIFF 1A BREAK x1


 RIFF 1C BREAK x1

|---------------------------------|
|---------------------------------|
|---------------------------------|
|---------------------------------|
|-2-----2-2-----2-1-----2-4-5---3-|
|-0-----0-3-----3-2-----0-2-4---1-|
                             x



 RIFF 1D CHORUS x1

|x3
|---------------------------------|---------------------------------|
|---------------------------------|---------------------------------|
|---------------------------------|---------------------------------|
|---------------------------------|---------------------------------|
|-2-----2-2-----2-1-----1-0-----0-|-2-----2-2-----2-1-----2-4-5---3-|
|-0-----0-3-----3-2-----2-1-----1-|-0-----0-3-----3-2-----0-2-3---1-|
                                                               x


|---------------------------------|---------------------------------|
|---------------------------------|---------------------------------|
|---------------------------------|---------------------------------|
|---------------------------------|---------------------------------|
|-2-----2-2-----2-1-----1-0-----0-|-2-----2-2-----2-1-----2-4-5-----|
|-0-----0-3-----3-2-----2-1-----1-|-0-----0-3-----3-2-----0-2-3-----|
                                                               x



 END OF THE SONG IN GOD HATES US ALL COLLECTOR'S EDITION


 IN THE STANDARD VERSION:


 RIFF 3C OUTRO x1

|x7
|-------------------------------------|
|-------------------------------------|
|-------------------------------------|
|-------------------------------------|
|-2-3---5---6---4-----5---8---7---6---|
|-0-1---3---4---2-----3---6---5---4---|
  . .


|x1
|-------------------------------------|
|-------------------------------------|
|-------------------------------------|
|-------------------------------------|
|-2-3---5---6---4-----5---8---7---6---|
|-0-1---3---4---2-----3---6---5---4---|
  . .                              x


10. Deviance

Tuning Db


 RIFF 1 INTRO x6

|KING CLEAN WITH CHORUS AND TREMOLO EFFECTS
|-----------------------------------|
|-----------------------------------|
|-----------------------------------|
|-------3-4-3-----------------------|
|---3-----------2-----------3---2---|
|-0-----------------5---4-----------|
|
|
|HANNEMAN CLEAN WITH CHORUS AND TREMOLO EFFECTS
|-----------------------------------|
|-----------------------------------|
|-----------------------------------|
|-------8-9-8-----------------------|
|-7-8-----------7-----------8---7---|
|------------------10---9-----------|




 RIFF 2 INTRO x1

|-----------------------------------------------------------------|
|-----------------------------------------------------------------|
|-----------------------------------------------------------------|
|-----------------------------------------------------------------|
|-2-2-2-3-3-3-2-2-2-2-3-3-6---2-2-3-3-3-6-6-6-5-5-5-2-2-2-3-3-3-3-|
|-0-0-0-1-1-1-0-0-0-0-1-1-4---0-0-1-1-1-4-4-4-3-3-3-0-0-0-1-1-1-1-|




 RIFF 3 VERSE x8

|BOTH CLEAN WITH CHORUS AND TREMOLO EFFECTS
|-----------------------------------|
|-----------------------------------|
|-----------------------------------|
|-----3-------2---------------------|
|---2-----------------2-------------|
|-0---------0-------0---------3-1---|





 RIFF 2 CHORUS x2

 RIFF 3 VERSE x6


 RIFF 4 BRIDGE x2

|BOTH WITH LIGHT DISTORTION
|-----------------------------------|-----------------------------------|
|-----------------------------------|-----------------------------------|
|-----------------------------------|-----------------------------------|
|-----6-------5---------------------|-----5-------4---------------------|
|---5-----------------5-------------|---4-----------------4-------------|
|-3---------3-------3---------6-4---|-2---------2-------2---------5-3---|




 RIFF 5 BREAK x4

|KING
|-----------------------------------|
|-----------------------------------|
|-----------------------------------|
|-------8-9-8-----------------------|
|-7-8-----------7-----------8---7---|
|------------------10---9-----------|
|
|
|HANNEMAN
|-----------------------------------|
|-----------------------------------|
|-------7-8-7-----------------------|
|-6-7-----------6-----------7---6---|
|-------------------9---8-----------|
|-----------------------------------|




 RIFF 2 CHORUS x2


 SOLO HANNEMAN
  N.H. BAR      BAR                 N.H. BAR   N.H. BAR        WAH & BAR
|---------------------------------------------------------------------------
|-4\\////\\\\---------------------------------------------------------------
|----------------------------------------------4//\\\////\\\\---------------
|--------------------------------------------------------------0//\\\\\\\\--
|-----------------------------------4////////-------------------------------
|--------------7//\\\\////\\\\\\\\------------------------------------------

  WAH  WAH    WAH    WAH  WAH  WAH__   WAH    WAH    WAH  WAH  WAH
|------19b^^--18b^^--15b^--------------19b^^--18b^^--15b^---------|
|-17----------------------17---16-17----------------------17---16-|
|-----------------------------------------------------------------|
|-----------------------------------------------------------------|
|-----------------------------------------------------------------|
|-----------------------------------------------------------------|

  N.H. BAR
|-------------------------------------------------------|
|-16//////GRADUAL PULL////\\\\GRADUAL RELASE\\\\\\\\----|
|-------------------------------------------------------|
|-------------------------------------------------------|
|-------------------------------------------------------|
|-------------------------------------------------------|




 RIFF 3 x6 UNDER SOLO

 RIFF 1 BREAK x3


 RIFF 1A BREAK x1

|KING CLEAN WITH CHORUS AND TREMOLO EFFECTS
|-----------------------------------|
|-----------------------------------|
|-----------------------------------|
|-------3-4-3-----------------------|
|---3-----------2-----------3---2---|
|-0-----------------5---4-----------|
|                            x   x
|
|HANNEMAN CLEAN WITH CHORUS AND TREMOLO EFFECTS
|-----------------------------------|
|-----------------------------------|
|-----------------------------------|
|-------8-9-8-----------------------|
|-7-8-----------7-----------8---7---|
|------------------10---9-----------|
                             x   x


 RIFF 2 CHORUS x3


 RIFF 2 END CHORUS x1

|-----------------------------------------------------------------|
|-----------------------------------------------------------------|
|-----------------------------------------------------------------|
|-----------------------------------------------------------------|
|-2-2-2-3-3-3-2-2-2-2-3-3-6---2-2-3-3-3-6-6-6-5-5-5-2-2-2-3-3-3-3-|
|-0-0-0-1-1-1-0-0-0-0-1-1-4---0-0-1-1-1-4-4-4-3-3-3-0-0-0-1-1-1-1-|
                                                          . . . .x

11. War Zone

Tuning B (7 Strings King & 6 Strings low tuned Hanneman)


 RIFF 1 INTRO x1

|KING x3                  |x1
|-------------------------|-------------------------|
|-------------------------|-------------------------|
|-------------------------|-------------------------|
|-------------------------|-------------------------|
|-------------------------|-------------------------|
|-----------------7-------|------------12--11-------|
|-55555555555555555-------|-5555555555510---9-------|
| ................ x        ...........
|
|HANNEMAN x3              |x1
|-------------------------|-------------------------|
|-------------------------|-------------------------|
|-------------------------|-------------------------|
|-------------------------|-------------------------|
|-9-8-7-9-8-7-9-8-7-------|-9-8-7-9-8-712----11-----|
|-7-6-5-7-6-5-7-6-5-------|-7-6-5-7-6-510-----9-----|
                   x



 RIFF 2 INTRO x2

|x3                       |x1
|-------------------------|-------------------------|
|-------------------------|-------------------------|
|-------------------------|-------------------------|
|-------------------------|-------------------------|
|-------------------------|-------------------------|
|-------------------------|---------------------3---|
|-0-6-5-0-5-4-0-4-3-0-3-2-|-0-6-5-0-5-4-0-4-3-0-1---|
  . . . . . . . . . . . .   . . . . . . . . . .



 RIFF 1A INTRO x2

|-------------------------|-------------------------|
|-------------------------|-------------------------|
|-------------------------|-------------------------|
|-------------------------|-------------------------|
|-------------------9-8-7-|-------------------------|
|-9-8-7-9-8-7-9-8-7-7-6-5-|-9-8-7-9-8-7-9-8-7121110-|
|-7-6-5-7-6-5-7-6-5-------|-7-6-5-7-6-5-7-6-510-9-8-|



|-------------------------|-------------------------|
|-------------------------|-------------------------|
|-------------------------|-------------------------|
|-------------------------|-------------------------|
|-------------------9-8-7-|-------------------------|
|-9-8-7-9-8-7-9-8-7-7-6-5-|-9-8-7-9-8-712----11-----|
|-7-6-5-7-6-5-7-6-5-------|-7-6-5-7-6-510-----9-----|




 FILL 1

|---------------------------|
|---------------------------|
|---------------------------|
|---------------------------|
|---------------------------|
|---------------------3-----|
|-0-6-5-0-5-4-0-4-3-0-1-----|
  . . . . . . . . . .



 RIFF 3 VERSE x2

|--------------------------------|--------------------------------|
|--------------------------------|--------------------------------|
|--------------------------------|--------------------------------|
|--------------------------------|--------------------------------|
|--------------------------------|--------------------------------|
|-2-3-2-2-2-2-2-2-2-3-2-2-5---6--|-2-3-2-2-2-2-2-2-2-3-2-2-5---3--|
|-0-1-0-0-0-0-0-0-0-1-0-0-3-0-4--|-0-1-0-0-0-0-0-0-0-1-0-0-3-0-1--|
      . . . . . . .   . .   .          . . . . . . .   . .   .



 RIFF 4 BRIDGE x1

|-------------------------------------------------------------------|
|-------------------------------------------------------------------|
|-------------------------------------------------------------------|
|-------------------------------------------------------------------|
|-------------------------------------------------------------------|
|-2-3-2-2-2-2-----2-3-2-2-2-2-----2-3-2-2-2-2-----2-3-2-2-5---6-----|
|-0-1-0-0-0-0-----0-1-0-0-0-0-----0-1-0-0-0-0-----0-1-0-0-3-0-4-----|
             x               x               x        . .   .


|-------------------------------------------------------------------|
|-------------------------------------------------------------------|
|-------------------------------------------------------------------|
|-------------------------------------------------------------------|
|-------------------------------------------------------------------|
|-2-3-2-2-2-2-----2-3-2-2-2-2-----2-3-2-2-2-2-----2-3-2-2-5---3-----|
|-0-1-0-0-0-0-----0-1-0-0-0-0-----0-1-0-0-0-0-----0-1-0-0-3-0-1-----|
             x               x               x        . .   .



 RIFF 1B CHORUS x2

|x2                       |x1
|-------------------------|-------------------------|
|-------------------------|-------------------------|
|-------------------------|-------------------------|
|-------------------------|-------------------------|
|-------------------------|-------------------------|
|-9-8-7-9-8-7-9-8-7-------|-9-8-7-9-8-712----11-----|
|-7-6-5-7-6-5-7-6-5-------|-7-6-5-7-6-510-----9-----|
                   x



 RIFF 1A BRIDGE x2

 RIFF 2 BREAK x1


 RIFF 3A VERSE x2

|--------------------------------|--------------------------------|
|--------------------------------|--------------------------------|
|--------------------------------|--------------------------------|
|--------------------------------|--------------------------------|
|--------------------------------|--------------------------------|
|-2-3-2-2---------2-3-2-2-5---6--|-2-3-2-2---------2-3-2-2-5---3--|
|-0-1-0-0---------0-1-0-0-3-0-4--|-0-1-0-0---------0-1-0-0-3-0-1--|
         x                  .             x                  .



 RIFF 4 BRIDGE x1

 RIFF 2 BREAK x2

 RIFF 1B CHORUS x2

 RIFF 1A BRIDGE x2


 RIFF 5 OUTRO x8

|---------------|
|---------------|
|---------------|
|---------------|
|---------------|
|-2-3-2-2-2-----|
|-0-1-0-0-0-----|

12. Here Comes The Pain

Tuning Bb (7 Strings King & 6 Strings low tuned Hanneman)


 RIFF 1 INTRO x2

|KING WITH TREMOLO AND A LITTLE PHASER
|-------------------|-------------------|
|-------------------|-------------------|
|-------------------|-------------------|
|-------------------|-------------------|
|-------------------|-------------------|
|-3-2-3---2---------|-------------------|
|-1-0-1---0---------|-------------------|
|
|
|HANNEMAN
|-------------------|-------------------|
|-------------------|-------------------|
|-------------------|-------------------|
|-------------------|-------------------|
|-3-2-3---2---------|-------------------|
|-1-0-1---0---------|-------------------|




 SOLO 1 KING
  WAH & BAR/\/\/\/\/\/\/\ N.H. BAR              N.H. BAR       N.H. BAR
|-------------------------------------------------------------------------|
|-----------------------------------------------5////\/\/\\---------------|
|-----------------------------------------------5////\/\/\\---------------|
|-4p3p0h4p3p0h4p3p0h4p3p0-4//\\\////////\/\/\\-----------------4////\/\\--|
|-------------------------------------------------------------------------|
|-------------------------------------------------------------------------|
|-------------------------------------------------------------------------|

  N.H. BAR   N.H. BAR          N.H. BAR    N.H. BAR     WAH & BAR/\/\/\/\
|-------------------------------------------------------------------------|
|-------------------------------------------------------------------------|
|-------------------------------------------------------5p4p0h5p4p0h5p4p0-|
|-5////\/\\--4/\\\\////\/\/\\--5/\/\/\/\\--6////\/\/\\--------------------|
|-------------------------------------------------------------------------|
|-------------------------------------------------------------------------|
|-------------------------------------------------------------------------|

   WAH & BAR/\/\/\/\  N.H. BAR
|---------------------5//\\\\////////\/\/\\----|
|---------------------5//\\\\////////\/\/\\----|
|-h5p4p0h5p4p0h5p4p0---------------------------|
|----------------------------------------------|
|----------------------------------------------|
|----------------------------------------------|
|----------------------------------------------|




 RIFF 1 x2 UNDER SOLO


 RIFF 1A x2 UNDER SOLO

|KING WITH TREMOLO AND A LITTLE PHASER
|-------------------|-------------------|
|-------------------|-------------------|
|-------------------|-------------------|
|-------------------|-------------------|
|-------------------|-------------------|
|-3-2-3---2---------|-3-2-3---2---------|
|-1-0-1---0---------|-1-0-1---0---------|
|
|
|HANNEMAN
|-------------------|-------------------|
|-------------------|-------------------|
|-------------------|-------------------|
|-------------------|-------------------|
|-3-2-3---2---------|-3-2-3---2---------|
|-1-0-1---0---------|-1-0-1---0---------|




 FILL 1

|-------|
|-------|
|-------|
|-------|
|-------|
|-3-2-3-|
|-1-0-1-|
       x



 RIFF 2 MAIN x4

|-------------------------------|-------------------------------|
|-------------------------------|-------------------------------|
|-------------------------------|-------------------------------|
|-------------------------------|-------------------------------|
|-------------------------------|-------------------------------|
|---------6---------5-------3---|---------6---------5---3-3-3---|
|-0-0-0---4---0-0-0-3---0-0-1---|-0-0-0---4---0-0-0-3---1-1-1---|
  . . .       . . .     . .       . . .       . . .



 RIFF 1B BREAK x1

|KING WITH TREMOLO AND A LITTLE PHASER
|-------------------|-------------------|
|-------------------|-------------------|
|-------------------|-------------------|
|-------------------|-------------------|
|-------------------|-------------------|
|-3-2-3---2---------|-------------------|
|-1-0-1---0---------|-------------------|
|
|
|HANNEMAN
|-------------------|-------------------|
|-------------------|-------------------|
|-------------------|-------------------|
|-------------------|-------------------|
|-3-2-3---2---------|-3-2-3---2---------|
|-1-0-1---0---------|-1-0-1---0---------|


|KING WITH TREMOLO AND A LITTLE PHASER
|-------------------|-------------------|
|-------------------|-------------------|
|-------------------|-------------------|
|-------------------|-------------------|
|-------------------|-------------------|
|-(2)---------------|-------------------|
|-(0)---------------|-------------------|
|
|
|HANNEMAN
|-------------------|-------------------|
|-------------------|-------------------|
|-------------------|-------------------|
|-------------------|-------------------|
|-3-2-3---2---------|-3-2-3---2---------|
|-1-0-1---0---------|-1-0-1---0---------|




 FILL 1


 RIFF 3A INTO VERSE x1

|KING
|---------------------------------------------------------|
|---------------------------------------------------------|
|---------------------------------------------------------|
|---------------------------------------------------------|
|---------------------------------------------------------|
|-------------------------------------------------6---3---|
|-0-0---0-0-0---0-0-0---0-0-0---0-0-0---0-0-0---0-4---1---|
| . .   . . .   . . .   . . .   . . .   . . .   .
|
|HANNEMAN
|---------------------------------------------------------|
|---------------------------------------------------------|
|---------------------------------------------------------|
|---------------------------------------------------------|
|-2-----------------------------------------------6---3---|
|-0-----------------------------------------------4---1---|
   x



 RIFF 3 VERSE x4

|---------------------------------------------------------|
|---------------------------------------------------------|
|---------------------------------------------------------|
|---------------------------------------------------------|
|---------------------------------------------------------|
|-------------------------2h3---------------------3---6---|
|-0-0---0-0-0---0-0-0---0-0h1-----0-0---0-0-0---0-1---4---|
  . .   . . .   . . .   .         . .   . . .   .


 RIFF 4 BRIDGE x1

|-----------------|-----------------|-----------------|-----------------|
|-----------------|-----------------|-----------------|-----------------|
|-----------------|-----------------|-----------------|-----------------|
|-----------------|-----------------|-----------------|-----------------|
|-----------------|-----------------|-----------------|-----------------|
|-5-555-555-6-6-6-|-5-555-555-6-5-6-|-5-555-555-6-6-6-|-5-555-555-6-2---|
|-3-333-333-4-4-4-|-3-333-333-4-3-4-|-3-333-333-4-4-4-|-3-333-333-4-0---|
                                                                  .  x



 RIFF 5 BREAK x4

|-------------------------|
|-------------------------|
|-------------------------|
|-------------------------|
|-------------------------|
|-3---5---3-2---------6---|
|-1---3---1-0---------4---|




 FILL 2

|---------|
|---------|
|---------|
|---------|
|---------|
|-2-2-5---|
|-0-0-3---|
  . .



 RIFF 3A INTO VERSE x1

 RIFF 3 VERSE x4

 RIFF 4 BRIDGE x1

 RIFF 5 BREAK x4

 FILL 2


 FILL 3

|-----------------|
|-----------------|
|-----------------|
|-----------------|
|-----------------|
|-3-2---------6---|
|-1-0---------4---|




 RIFF 5 INTERLUDE x3

 FILL 2

 RIFF 1A INTERLUDE x2


 SOLO 2 KING
  WAH & BAR      WAH & BAR/\/\/\/\/\/\/\/\/\/\/\/\/\/\/\/\/\/\/\/\/\ WAH & BAR
|---------------------------------------------------------------------------
|---------------------------------------------------------------------------
|-0//\\\\\\\\----5p4p0h5p4p0h5p4p0h5p4p0h5p4p0h5p4p0h5p4p0h5p4p0h5p4p0//
|---------------------------------------------------------------------------
|---------------------------------------------------------------------------
|---------------------------------------------------------------------------
|---------------------------------------------------------------------------

  WAH & BAR/\/\/\    WAH____     WAH________________     WAH & BAR
|---------------------------------------------------------------------|
|--------------------------------/7fb^^^7^^7^^7^7^7^^^r---------------|
|-4///////////16///////24\\\\----------------------------0//\\\\\\\\--|
|---------------------------------------------------------------------|
|---------------------------------------------------------------------|
|---------------------------------------------------------------------|
|---------------------------------------------------------------------|
                                         x  x  x x
   WAH__    WAH & BAR       WAH______________________________________________
|---------------------------4-4-5-4-5-7-5-4-------4-5-7-5-4-----------------
|-------------------------------------------7-6-4-----------7-6-4-7-6-4-----
|-//13\\\\--7//////14b\\\\----------------------------------------------754-
|---------------------------------------------------------------------------
|---------------------------------------------------------------------------
|---------------------------------------------------------------------------
|---------------------------------------------------------------------------

  WAH_________________________________________________________________
|----------------------------------------------------------------------|
|-4-6-7-6-7-9-7-9-10-9-10-12-10-12-13-12-13-15-13-15-16-15-13----------|
|-------------------------------------------------------------16-14-13-|
|----------------------------------------------------------------------|
|----------------------------------------------------------------------|
|----------------------------------------------------------------------|
|----------------------------------------------------------------------|

   WAH & BAR     WAH & BAR     WAH & BAR            WAH  WAH WAH & BAR
|-//17b/\/\/\\--//19b/\/\/\\--//22b////\/\/\/\\----//19^-----22b//\/\/\\----
|--------------------------------------------------------18^----------------
|---------------------------------------------------------------------------
|---------------------------------------------------------------------------
|---------------------------------------------------------------------------
|---------------------------------------------------------------------------
|---------------------------------------------------------------------------

   WAH & BAR  WAH & BAR        WAH & BAR   WAH & BAR      WAH & BAR
|-//17b/\/\\--//22b//\/\/\\---//17b/\/\\--//22b//\/\/\\------------------|
|------------------------------------------------------------------------|
|---------------------------------------------------------0//\\\\\\\\----|
|------------------------------------------------------------------------|
|------------------------------------------------------------------------|
|------------------------------------------------------------------------|
|------------------------------------------------------------------------|




 RIFF 2 x4 UNDER SOLO 2


 RIFF 6A INTO INTERLUDE x1

|KING x2
|----------------------|----------------------|
|----------------------|----------------------|
|----------------------|----------------------|
|----------------------|----------------------|
|---------8-7b^^-------|-----------8-7--------|
|-7---7----------------|-7---7-6-7-----6b^^---|
|-0--------------------|-0--------------------|
|
|
|HANNEMAN x2
|----------------------|----------------------|
|----------------------|----------------------|
|----------------------|----------------------|
|----------------------|----------------------|
|-2--------------------|----------------------|
|-0--------------------|----------------------|



|KING x2
|----------------------|----------------------|
|----------------------|----------------------|
|----------------------|----------------------|
|----------------------|----------------------|
|---------8-7b^^-------|-----------8-7--------|
|-7---7----------------|-7---7-6-7-----6b^^---|
|-0--------------------|-0--------------------|
|
|
|HANNEMAN x2
|----------------------|----------------------|
|----------------------|----------------------|
|----------------------|----------------------|
|----------------------|----------------------|
|-2--------------------|-2--------------------|
|-0--------------------|-0--------------------|




 RIFF 6 INTERLUDE x1

|KING
|----------------------|----------------------|
|----------------------|----------------------|
|----------------------|----------------------|
|----------------------|----------------------|
|----------------------|----------------------|
|-7--------------------|-7---------8-7--------|
|-0---5---6-5b^^-------|-0---7-6-7-----6b^^---|
|
|
|HANNEMAN
|----------------------|----------------------|
|----------------------|----------------------|
|----------------------|----------------------|
|---------8-7b^^-------|-----------8-7--------|
|-7---7----------------|-7---7-6-7-----6b^^---|
|-0--------------------|-0--------------------|



|KING
|----------------------|----------------------|
|----------------------|----------------------|
|----------------------|----------------------|
|----------------------|----------------------|
|----------------------|----------------------|
|-7---7----------------|-7---------8-7--------|
|-0-------6-5b^^-------|-0---7-6-7-----6b^^---|
|
|
|HANNEMAN
|----------------------|----------------------|
|----------------------|----------------------|
|----------------------|----------------------|
|---------8-7b^^-------|-----------8-7--------|
|-7---7----------------|-7---7-6-7-----6b^^---|
|-0--------------------|-0--------------------|



|KING
|----------------------|----------------------|
|----------------------|----------------------|
|----------------------|----------------------|
|----------------------|----------------------|
|----------------------|----------------------|
|-7--------------------|-7---------8-7--------|
|-0---5---6-5b^^-------|-0---7-6-7-----6b^^---|
|
|
|HANNEMAN
|----------------------|----------------------|
|----------------------|----------------------|
|----------------------|----------------------|
|---------8-7b^^-------|-----------8-7--------|
|-7---7----------------|-7---7-6-7-----6b^^---|
|-0--------------------|-0--------------------|



|KING
|----------------------|----------------------|
|----------------------|----------------------|
|----------------------|----------------------|
|----------------------|----------------------|
|----------------------|----------------------|
|-7---9---8-7b^^-------|-7---------8-7--------|
|-0--------------------|-0---7-6-7-----6b^^---|
|
|
|HANNEMAN
|----------------------|----------------------|
|----------------------|----------------------|
|----------------------|----------------------|
|---------8-7b^^-------|-----------8-7--------|
|-7---7----------------|-7---7-6-7-----6b^^---|
|-0--------------------|-0--------------------|




 RIFF 7 CHORUS x4

|----------------------|----------------------|
|----------------------|----------------------|
|----------------------|----------------------|
|----------------------|----------------------|
|---------4\3----------|-----------4-3--------|
|-2---2---2\1----------|-2---3-2-3-2-1-3------|
|-0---0----------------|-0---1-0-1-----1------|
                             . . .



 SOLO 3 HANNEMAN
  WAH______      WAH___    WAH___    WAH_____________________________
|----18----------19--------21-----------------18-19-21-19-18----------|
|-------17b^^^------18b^^-----20b^^--18-20-21----------------21-20-18-|
|-15------------------------------------------------------------------|
|---------------------------------------------------------------------|
|---------------------------------------------------------------------|
|---------------------------------------------------------------------|

  WAH______________________________
|-------------------------------------------------------------------------|
|-21-20-18-21-20-18-------------------------------------------------------|
|-------------------21-19-18-19/21b^^^---16-18-18-18fb^^r--18-16-18fb^^r--|
|-------------------------------------------------------------------------|
|-------------------------------------------------------------------------|
|-------------------------------------------------------------------------|

           WAH__    WAH_____________________________________________
|-------------------21-22-24-22-21----------------------------------------|
|----------------------------------24-23-21-24-23-21----------------------|
|-18-16b^^^^^^^^-------------------------------------24-22-21-22/24b^^^^--|
|-------------------------------------------------------------------------|
|-------------------------------------------------------------------------|
|-------------------------------------------------------------------------|

  WAH______ BAR
|----24----------------------------|
|-24----23b////\\\///\/\/\/\/\\----|
|----------------------------------|
|----------------------------------|
|----------------------------------|
|----------------------------------|




 FILL 3 UNDER SOLO

 RIFF 5 x3 UNDER SOLO

 FILL 2 UNDER SOLO

 FILL 3

 RIFF 5 BREAK x3

 FILL 2

 RIFF 1 OUTRO x2


 SOLO 4 KING
  WAH & BAR/\/\/\/\/\/\/\/\/\/\/\/\ WAH & BAR   WAH & BAR
|-------------------------------------------------------------------|
|-------------------------------------------------------------------|
|-----------------------------------------------0\\\\\\//\\\//\\\---|
|-4p3p0h4p3p0h4p3p0h4p3p0h4p3p0h4p3p0\\\\\\\\-----------------------|
|-------------------------------------------------------------------|
|-------------------------------------------------------------------|
|-------------------------------------------------------------------|

  N.H. BAR             N.H. BAR  N.H. BAR
|--------------------------------5\////////////\/\\----|
|-4////\\/\/\\-------------------5\////////////\/\\----|
|---------------x\\\\--4///\/\\------------------------|
|---------------x\\\\----------------------------------|
|------------------------------------------------------|
|------------------------------------------------------|
|------------------------------------------------------|




 RIFF 1A x2 UNDER SOLO

 FILL 1 END

13. Payback 

 Tuning B (7 Strings King & 6 Strings low tuned Hanneman)


 RIFF 1A INTO MAIN x1

|KING
|-----------------------------------------------------------|
|-----------------------------------------------------------|
|-----------------------------------------------------------|
|-----------------------------------------------------------|
|-----------------------------------------------------------|
|-2-------------3-------------4-------------4---5-------3---|
|-0-000-000-000-1-000-000-000-2-000-000-000-2---3---000-1---|
|   ... ... ...   ... ... ...   ... ... ...         ...
|
|HANNEMAN
|-----------------------------------------------------------|
|-----------------------------------------------------------|
|-----------------------------------------------------------|
|-----------------------------------------------------------|
|-2---------------------------------------------------------|
|-0---------------------------------------------------------|
   x


|KING
|-----------------------------------------------------------|
|-----------------------------------------------------------|
|-----------------------------------------------------------|
|-----------------------------------------------------------|
|-----------------------------------------------------------|
|-2-------------3-------------4-------------4---5-------3---|
|-0-000-000-000-1-000-000-000-2-000-000-000-2---3---000-1---|
|   ... ... ...   ... ... ...   ... ... ...         ...
|
|HANNEMAN
|-----------------------------------------------------------|
|-----------------------------------------------------------|
|-----------------------------------------------------------|
|-----------------------------------------------------------|
|-2-------------3-------------4-------------x\\\\\\\\\\\\\\-|
|-0-------------1-------------2-----------------------------|
   x             x             x



 RIFF 1 MAIN x2

|-----------------------------------------------------------|
|-----------------------------------------------------------|
|-----------------------------------------------------------|
|-----------------------------------------------------------|
|-----------------------------------------------------------|
|-2-------------3-------------4-------------4---5-------3---|
|-0-000-000-000-1-000-000-000-2-000-000-000-2---3---000-1---|
    ... ... ...   ... ... ...   ... ... ...         ...



 FILL 1

|KING
|----------------------------|----------------------------|
|----------------------------|----------------------------|
|----------------------------|----------------------------|
|----------------------------|----------------------------|
|-----------------3----------|----------------------------|
|-4---5-------3---1----------|----------------------------|
|-2---3---000-1--------------|----------------------------|
|         ...
|
|HANNEMAN
|----------------------------|----------------------------|
|----------------------------|----------------------------|
|----------------------------|----------------------------|
|-----------------3----------|----------------------------|
|-4---5-------3---1----------|-x\\\\\\\\\\\\\\\\\\\\\\\\\-|
|-2---3---000-1--------------|----------------------------|
          ...



 RIFF 2 VERSE x1

|-------------------------------------------------|
|-------------------------------------------------|
|-------------------------------------------------|
|-------------------------------------------------|
|-------------------------------------------------|
|-2-----------6-----------2-----------6-----5-----|
|-0-000000000-4-444444444-0-000000000-4-444-3-333-|
    .........   .........   .........   ...   ...


|-------------------------------------------------|
|-------------------------------------------------|
|-------------------------------------------------|
|-------------------------------------------------|
|-------------------------------------------------|
|-2-----------5-----------2-----------6-----5-----|
|-0-000000000-3-333333333-0-000000000-4-444-3-333-|
    .........   .........   .........   ...   ...



 RIFF 3 BREAK x2

|---------------|---------------|---------------|---------------|
|---------------|---------------|---------------|---------------|
|---------------|---------------|---------------|---------------|
|---------------|---------------|---------------|---------------|
|---------------|---------------|---------------|---------------|
|-3p2-3---------|-3p2-3---------|-3p2-3---------|-3p2-3---------|
|-1p0-1-000-000-|-1p0-1-000-000-|-1p0-1-000-000-|-1p0-1-444-333-|
        ... ...         ... ...         ... ...         ... ...



 RIFF 4 BRIDGE x4

|---------------------------------------|
|---------------------------------------|
|---------------------------------------|
|---------------------------------------|
|---------------------------------------|
|-3-------------------------------------|
|-1111111111111444444777777666666666666-|
   ....................................



 RIFF 1 CHORUS x2


 FILL 2

|KING
|------------|----------------------------|
|------------|----------------------------|
|------------|----------------------------|
|------------|----------------------------|
|-3----------|----------------------------|
|-1----------|----------------------------|
|------------|----------------------------|
|
|
|HANNEMAN
|------------|----------------------------|
|------------|----------------------------|
|------------|----------------------------|
|-3----------|----------------------------|
|-1----------|-x\\\\\\\\\\\\\\\\\\\\\\\\\-|
|------------|----------------------------|




 RIFF 2 VERSE x1

 RIFF 3 BREAK x2

 RIFF 4 BRIDGE x3


 RIFF 4A BRIDGE x1

|KING
|---------------------------------------|
|---------------------------------------|
|---------------------------------------|
|---------------------------------------|
|-----------------------------x\\\\\\\\-|
|-3-------------------------------------|
|-1111111111111444444777777666----------|
|  ...........................
|
|HANNEMAN
|---------------------------------------|
|---------------------------------------|
|---------------------------------------|
|---------------------------------------|
|-3-------------------------------------|
|-1111111111111444444777777666666666666-|
   ....................................



 RIFF 1 CHORUS x2

 FILL 1


 RIFF 5 INTERLUDE x4

|-----------------------------|-----------------------------|
|-----------------------------|-----------------------------|
|-----------------------------|-----------------------------|
|-----------------------------|-----------------------------|
|-----------------------------|-----------------------------|
|-3-2-----------3-2-----------|-3--2---3--2---6---5---2-3-4-|
|-1-0---0-0-0-0-1-0---0-0-0-0-|-1--0---1--0---4---3---0-1-2-|
        . . . .       . . . .


|-----------------------------|-----------------------------|
|-----------------------------|-----------------------------|
|-----------------------------|-----------------------------|
|-----------------------------|-----------------------------|
|-----------------------------|-----------------------------|
|-3-2-----------3-2-----------|-3--2---3--2---7---6---3-4-5-|
|-1-0---0-0-0-0-1-0---0-0-0-0-|-1--0---1--0---5---4---1-2-3-|
        . . . .       . . . .



 SOLO KING
  WAH       WAH       WAH & BAR       WAH & BAR    WAH & BAR/\/\/\/\/\/\/\
|-16b^^^----18b^^^----16b///\/\/\\-----------------------------------------|
|-19b^^^----21b^^^----19b///\/\/\\-----------------------------------------|
|--------------------------------------------------5p4p0h5p4p0h7p5p0h7p5p0-|
|-------------------------------------0\\\\\\\\----------------------------|
|--------------------------------------------------------------------------|
|--------------------------------------------------------------------------|
|--------------------------------------------------------------------------|

  WAH & BAR/\/\/\/\/\/\/\/\/\/\/\/\/\/\/\/\/\/\/\/\/\/\/\/\/\/\/\/\/\/\/\/\
|---------------------------------------------------------------------------
|---------------------------------------------------------------------------
|h8p7p0h8p7p0h10p8p0h10p8p0h11h14p12h15p13h16p14h17p15h18p16h19p17h20p18h21-
|---------------------------------------------------------------------------
|---------------------------------------------------------------------------
|---------------------------------------------------------------------------
|---------------------------------------------------------------------------

   WAH & BAR/\/\/\/\ WAH____________________________________________ WAH
|--------------------22-17h20p19-22-17h20p19-22-17h20p19-22-17h20p19--------
|---------------------------------------------------------------------------
|-p19h22p20h23p21h24-------------------------------------------------x\\\\--
|--------------------------------------------------------------------x\\\\--
|---------------------------------------------------------------------------
|---------------------------------------------------------------------------
|---------------------------------------------------------------------------
                      T           T           T           T



 RIFF 1B x2 UNDER SOLO

|-----------------------------------------------------------|
|-----------------------------------------------------------|
|-----------------------------------------------------------|
|-----------------------------------------------------------|
|-2-------------3-------------4-------------4---5-------3---|
|-0-00000000000-1-00000000000-2-00000000000-2---3---000-1---|
    ...........   ...........   ...........         ...



 RIFF 4 BRIDGE x4

 RIFF 1 CHORUS x4


 FILL 3 END

|---------------------------------------------|
|---------------------------------------------|
|---------------------------------------------|
|---------------------------------------------|
|---------------------------------------------|
|-4---5-------3---4---5-------3-6-------------|
|-2---3---000-1---2---3---000-1-4-000-000-000-|
          ...             ...     ... ... ...


|---------------------------------------------|
|---------------------------------------------|
|---------------------------------------------|
|---------------------------------------------|
|---------------------------------------------|
|-4---5-------3-6-------------4---5---2-3-6\\-|
|-2---3---000-1-4-000-000-000-2---3---0-1-4\\-|
          ...     ... ... ...

14. Addict 

Tuning Db


 RIFF 1 INTRO x4

|KING CLEAN WITH CHORUS, TREMOLO AND A LITTLE FLANGER EFFECTS
|---------------------------------------------------|
|---------------------------------------------------|
|---------------------------------------------------|
|---------------------------------------------------|
|---------3---------3-2-------------------1-0-------|
|-0---2-3-------2-3---------2-3-5-----2-3-----3-----|




 RIFF 2 INTRO x3

|-------------------------------------------------|
|-------------------------------------------------|
|-------------------------------------------------|
|-------------------------------------------------|
|-------3-------3-5-------2-3---------3---5---6---|
|-0-0-0-1---0---1-3---0---0-1---0-0---1---3---4---|
  . . .     .         .         . .



 RIFF 3A INTO VERSE

|-----------------------------------------------------------------|
|-----------------------------------------------------------------|
|-----------------------------------------------------------------|
|-----------------------------------------------------------------|
|-2-3-2---2-3-2---2-3-2---2-3-2---2-3-2---2-3-2---2-3-2---5---3---|
|-0-1-0---0-1-0---0-1-0---0-1-0---0-1-0---0-1-0---0-1-0---3---1---|
  . . .   . . .   . . .   . . .   . . .   . . .   . .


|KING
|-----------------------------------------------------------------|
|-----------------------------------------------------------------|
|-----------------------------------------------------------------|
|-----------------------------------------------------------------|
|-2-3-2---2-3-2---2-3-2---2-3-2---2-3-2---2-3-2---2-3-x\\-5---3---|
|-0-1-0---0-1-0---0-1-0---0-1-0---0-1-0---0-1-0---0-1-----3---1---|
| . . .   . . .   . . .   . . .   . . .   . . .   . .
|
|HANNEMAN
|-----------------------------------------------------------------|
|-----------------------------------------------------------------|
|-----------------------------------------------------------------|
|-----------------------------------------------------------------|
|-2-3-2---2-3-2---2-3-2---2-3-2---2-3-2---2-3-2---2-3-2---5---3---|
|-0-1-0---0-1-0---0-1-0---0-1-0---0-1-0---0-1-0---0-1-0---3---1---|
  . . .   . . .   . . .   . . .   . . .   . . .   . .



 RIFF 3 VERSE x2

|-----------------------------------------------------------------|
|-----------------------------------------------------------------|
|-----------------------------------------------------------------|
|-----------------------------------------------------------------|
|-2-3-2---2-3-2---2-3-2---2-3-2---2-3-2---2-3-2---2-3-2---5---3---|
|-0-1-0---0-1-0---0-1-0---0-1-0---0-1-0---0-1-0---0-1-0---3---1---|
  . . .   . . .   . . .   . . .   . . .   . . .   . .





 RIFF 4 BRIDGE x3

|---------------------------------|
|---------------------------------|
|---------------------------------|
|---------4-44444-5-55555-8-88888-|
|-2-22222-2-22222-3-33333-6-66666-|
|-0-00000-------------------------|




 RIFF 5 CHORUS x3

|---------------------------------|
|---------------------------------|
|---------------------------------|
|---------------------------------|
|-8-------5-------3---------------|
|-6666666-3333333-1111111-000-000-|
  ....... ....... ....... ... ...



 RIFF 1A BREAK x1

|KING CLEAN WITH CHORUS, TREMOLO AND A LITTLE FLANGER EFFECTS
|---------------------------------------------------|
|---------------------------------------------------|
|---------------------------------------------------|
|---------------------------------------------------|
|---------3---------3-2-------------------1-0-------|
|-0---2-3-------2-3---------2-3-5-----2-3-----3-----|
|
|
|HANNEMAN
|---------------------------------------------------|
|---------------------------------------------------|
|---------------------------------------------------|
|---------------------------------------------------|
|-2-----------------------------------x\\\\\\\\\\\\-|
|-0-------------------------------------------------|




 RIFF 3 VERSE x4

 RIFF 4 BRIDGE x3

 RIFF 5 CHORUS x3


 FILL 1

|-----|
|-----|
|-----|
|-----|
|-2---|
|-0---|
  .



 RIFF 6 INTERLUDE x1

|-------------------|-------------------|
|-------------------|-------------------|
|-------------------|-------------------|
|-------------------|-------------------|
|-3-6-4-3-4-3-6-4---|-3-6-4-3-4-3-6-7---|
|-3-6-4-3-4-3-6-4---|-3-6-4-3-4-3-6-7---|
  . . . . . . . .     . . . . . . . .


|-------------------|-------------------|
|-------------------|-------------------|
|-------------------|-------------------|
|-------------------|-------------------|
|-3-6-4-3-4-3-4-6---|-3-6-4-3-4-6-7-3---|
|-3-6-4-3-4-3-4-6---|-3-6-4-3-4-6-7-3---|
  . . . . . . . .     . . . . . . . .



 SOLO KING
  WAH WAH & BAR///////////// WAH___        WAH_______
|---------------------------------------------------------------------|
|-------------------------------------------------------------6-5b^^--|
|-//6-4p3p0h4p3p0h4p3p0h4p3p0h4p3p0h4p3p0-4h6-4b^^^^----3-4-6---------|
|---------------------------------------------------------------------|
|---------------------------------------------------------------------|
|---------------------------------------------------------------------|

  WAH____________________  WAH__________    WAH_____________________________
|----------------------------------------------------18-19-21-19-18---------
|-13-12-13-12-13-12-13-12///20202020-18b^^--18-20-21---------------21-20-18-
|---------------------------------------------------------------------------
|---------------------------------------------------------------------------
|---------------------------------------------------------------------------
|--------------------------------------------------------------------------

  WAH______ WAH______ WAH        WAH______ WAH______ WAH_________________
|-------------------------------------------------------------------------|
|-16b161616-16b161616-16b\\\\----16b161616-16b161616-16161717181819192020-|
|-16b161616-16b161616-16b\\\\----16b161616-16b161616-16161717181819192020-|
|-------------------------------------------------------------------------|
|-------------------------------------------------------------------------|
|-------------------------------------------------------------------------|

  WAH_____________ WAH & BAR N.H. BAR
|-----------------------------------------|
|-2121222223232424------------------------|
|-2121222223232424-0\\\\\\\\h5\\\\\\\\----|
|-----------------------------------------|
|-----------------------------------------|
|-----------------------------------------|




 RIFF 7 x3 UNDER SOLO

|---------------------------------|---------------------------------|
|---------------------------------|---------------------------------|
|---------------------------------|---------------------------------|
|---------------------------------|---------------------------------|
|---------------------------------|-------------------------5---6---|
|-3-4-3-1-3-4-3-1-3-4-3-1-3-4-3-1-|-3-4-3-1-3-4-3-1-3-4-3-1-3---4---|
  . . . . . . . . . . . . . . . .   . . . . . . . . . . . .



 RIFF 3 VERSE x2


 RIFF 7A BRIDGE x2

|---------------------------------|---------------------------------|
|---------------------------------|---------------------------------|
|---------------------------------|---------------------------------|
|---------------------------------|---------------------------------|
|---------------------------------|---------------------------------|
|-3-4-3-1-3-4-3-1-3-4-3-1-3-4-3-1-|-3-4-3-1-3-4-3-1-3-4-3-1-3-4-3-1-|
  . . . . . . . . . . . . . . . .   . . . . . . . . . . . . . . . .



 RIFF 5 CHORUS x3


 RIFF 4A OUTRO x10

|---------------------------------|
|---------------------------------|
|---------------------------------|
|---------4-4-4-4-5-5-5-5-8-8-8-8-|
|-2-2-2-2-2-2-2-2-3-3-3-3-6-6-6-6-|
|-0-0-0-0-------------------------|




 RIFF 4 OUTRO x4

15. Scarstruck

Tuning Bb (7 Strings King & 6 Strings low tuned Hanneman)


 RIFF 1 INTRO x1

|KING
|---------------------------------|---------------------------------|
|---------------------------------|---------------------------------|
|---------------------------------|---------------------------------|
|---------------------------------|---------------------------------|
|---------------------------------|-----------------------------3---|
|-6-5-3-2---6-5-2-6-5-2-6-5-2-3-2-|-6-5-3-2---6-5-2-6-5-2-6-5-2-3---|
|-4-3-1-0---4-3-0-4-3-0-4-3-0-1-0-|-4-3-1-0---4-3-0-4-3-0-4-3-0-----|
|           . . . . . . . . . . .             . . . . . . . . .
|
|HANNEMAN
|---------------------------------|---------------------------------|
|---------------------------------|---------------------------------|
|---------------------------------|---------------------------------|
|---------------------------------|---------------------------------|
|-6-5-3-2---6-5-2-6-5-2-6-5-2-3-2-|-6-5-3-2---6-5-2-6-5-2-6-5-2-3---|
|-4-3-1-0---4-3-0-4-3-0-4-3-0-1-0-|-4-3-1-0---4-3-0-4-3-0-4-3-0-1---|


|KING
|---------------------------------|---------------------------------|
|---------------------------------|---------------------------------|
|---------------------------------|---------------------------------|
|---------------------------------|---------------------------------|
|---------------------------------|---------------------------6-5-3-|
|-6-5-3-2---6-5-2-6-5-2-6-5-2-3-2-|-6-5-3-2---6-5-2-6-5-2-6-2-6-5-3-|
|-4-3-1-0---4-3-0-4-3-0-4-3-0-1-0-|-4-3-1-0---4-3-0-4-3-0-4-0-------|
|           . . . . . . . . . . .             . . . . . . . .
|
|HANNEMAN
|---------------------------------|---------------------------------|
|---------------------------------|---------------------------------|
|---------------------------------|---------------------------------|
|---------------------------------|---------------------------------|
|-6-5-3-2---6-5-2-6-5-2-6-5-2-3-2-|-6-5-3-2---6-5-2-6-5-2-6-2-6-5-3-|
|-4-3-1-0---4-3-0-4-3-0-4-3-0-1-0-|-4-3-1-0---4-3-0-4-3-0-4-0-4-3-1-|


|KING
|---------------------------------|---------------------------------|
|---------------------------------|---------------------------------|
|---------------------------------|---------------------------------|
|---------------------------------|---------------------------------|
|---------------------------------|-----------------------------6-5-|
|-6-5-3-2---6-5-2-6-5-2-6-5-2-3-2-|-6-5-3-2---6-5-2-6-5-2-6-5-2-6-5-|
|-4-3-1-0---4-3-0-4-3-0-4-3-0-1-0-|-4-3-1-0---4-3-0-4-3-0-4-3-0-----|
|           . . . . . . . . . . .             . . . . . . . . .
|
|HANNEMAN
|---------------------------------|---------------------------------|
|---------------------------------|---------------------------------|
|---------------------------------|---------------------------------|
|---------------------------------|---------------------------------|
|-6-5-3-2---6-5-2-6-5-2-6-5-2-3-2-|-6-5-3-2---6-5-2-6-5-2-6-5-2-6-5-|
|-4-3-1-0---4-3-0-4-3-0-4-3-0-1-0-|-4-3-1-0---4-3-0-4-3-0-4-3-0-4-3-|




 RIFF 2 VERSE x1

|KING
|---------------------------------|---------------------------------|
|---------------------------------|---------------------------------|
|---------------------------------|---------------------------------|
|---------------------------------|---------------------------------|
|---------------------------------|---------------------------------|
|-6-5-3-2---3-3-2-3-2-2-3-2-2-6---|-6-5-3-2---3-3-2-3-2-2-3-2-2-3-2-|
|-4-3-1-0---1-1-0-1-0-0-1-0-0-4---|-4-3-1-0---1-1-0-1-0-0-1-0-0-1-0-|
|             . .   . .   . .                   . .   . .   . .
|
|HANNEMAN
|---------------------------------|---------------------------------|
|---------------------------------|---------------------------------|
|---------------------------------|---------------------------------|
|---------------------------------|---------------------------------|
|-6-5-3-2---3-3-2-3-2-2-3-2-2-6---|-6-5-3-2---3-3-2-3-2-2-3-2-2-3-2-|
|-4-3-1-0---1-1-0-1-0-0-1-0-0-4---|-4-3-1-0---1-1-0-1-0-0-1-0-0-1-0-|



|KING
|---------------------------------|---------------------------------|
|---------------------------------|---------------------------------|
|---------------------------------|---------------------------------|
|---------------------------------|---------------------------------|
|---------------------------------|---------------------------------|
|-6-5-3-2---3-3-2-3-2-2-3-2-2-5---|-6-5-3-2---3-3-2-3-2-2-3-2-2-3-2-|
|-4-3-1-0---1-1-0-1-0-0-1-0-0-3---|-4-3-1-0---1-1-0-1-0-0-1-0-0-1-0-|
|             . .   . .   . .                   . .   . .   . .
|
|HANNEMAN
|---------------------------------|---------------------------------|
|---------------------------------|---------------------------------|
|---------------------------------|---------------------------------|
|---------------------------------|---------------------------------|
|-6-5-3-2---3-3-2-3-2-2-3-2-2-5---|-6-5-3-2---3-3-2-3-2-2-3-2-2-3-2-|
|-4-3-1-0---1-1-0-1-0-0-1-0-0-3---|-4-3-1-0---1-1-0-1-0-0-1-0-0-1-0-|




 RIFF 3 BREAK x1

|---------------------------------|---------------------------------|
|---------------------------------|---------------------------------|
|---------------------------------|---------------------------------|
|---------------------------------|---------------------------------|
|---------------------------------|---------------------------------|
|-5-5-5-5---5---5---5-5-5-3-3-6---|-5-5-5-5---5---5---5-5-5-2-------|
|-3-3-3-3---3---3---3-3-3-1-1-4---|-3-3-3-3---3---3---3-3-3-0-------|
   x x x x   x   x                   x x x x   x   x



 FILL 1

|KING
|---------|
|---------|
|---------|
|---------|
|-5-7-8-7-|
|-5-7-8-7-|
|---------|
|
|
|HANNEMAN
|---------|
|---------|
|---------|
|---------|
|-5-7-8-7-|
|-3-5-6-5-|




 RIFF 2A VERSE x4

|---------------------------------|---------------------------------|
|---------------------------------|---------------------------------|
|---------------------------------|---------------------------------|
|---------------------------------|---------------------------------|
|---------------------------------|---------------------------------|
|-3-------3-------3-------3-2-3-2-|-3-------3-------3-------3---5---|
|-1-000-0-1-000-0-1-000-0-1-0-1-0-|-1-000-0-1-000-0-1-000-0-1-0-3---|
    ... .   ... .   ... .   .   .     ... .   ... .   ... .   .


|---------------------------------|---------------------------------|
|---------------------------------|---------------------------------|
|---------------------------------|---------------------------------|
|---------------------------------|---------------------------------|
|---------------------------------|---------------------------------|
|-3-------3-------3-------3-2-3-2-|-3-------3-------3-------3---6---|
|-1-000-0-1-000-0-1-000-0-1-0-1-0-|-1-000-0-1-000-0-1-000-0-1-0-4---|
    ... .   ... .   ... .   .   .     ... .   ... .   ... .   .



 RIFF 4 CHORUS x3

|---------------------------------|
|---------------------------------|
|---------------------------------|
|---------------------------------|
|---------------------------------|
|-3-3-6-6-5---5/8---5/8---5/8-7---|
|-1-1-4-4-3---3/6---3/6---3/6-5---|




 FILL 2

|KING
|---------------------------------|---------------------------------|
|---------------------------------|---------------------------------|
|---------------------------------|---------------------------------|
|---------------------------------|---------------------------------|
|---------------------------------|-x\\\\\\\\\\\\-------------------|
|-3-3-6-6-5---5---5---5-5-5---2---|-----------------x\\\\\\\\\\\\---|
|-1-1-4-4-3---3---3---3-3-3---0---|---------------------------------|
|          x   x   x
|
|HANNEMAN
|---------------------------------|---------------------------------|
|---------------------------------|---------------------------------|
|---------------------------------|---------------------------------|
|---------------------------------|---------------------------------|
|-3-3-6-6-5---5---5---5-5-5---2---|-(2)-----------------------------|
|-1-1-4-4-3---3---3---3-3-3---0---|-(0)-----------------------------|
           x   x   x



 RIFF 2A VERSE x2

 RIFF 4 CHORUS x3


 FILL 2A

|---------------------------------|---------------------------------|
|---------------------------------|---------------------------------|
|---------------------------------|---------------------------------|
|---------------------------------|---------------------------------|
|---------------------------------|---------------------------------|
|-3-3-6-6-5---5---5---5-5-5---2---|---------5---5---5---------------|
|-1-1-4-4-3---3---3---3-3-3---0---|---------3---3---3---------------|
           x   x   x                         x   x   x



 RIFF 2 VERSE x2


 RIFF 3A BREAK x1

|---------------------------------|-------------------------|
|---------------------------------|-------------------------|
|---------------------------------|-------------------------|
|---------------------------------|-------------------------|
|---------------------------------|-------------------------|
|-5-5-5-5---5---5---5-5-5-3-3-6---|-5-5-5-5---5---5---5-5-5-|
|-3-3-3-3---3---3---3-3-3-1-1-4---|-3-3-3-3---3---3---3-3-3-|
   x x x x   x   x                   x x x x   x   x



 RIFF 2A VERSE x4

 RIFF 4 CHORUS x3


 FILL 3

|---------------------------------|
|---------------------------------|
|---------------------------------|
|---------------------------------|
|---------------------------------|
|-3-3-6-6-6\5---6\5---6\5---6\5---|
|-1-1-4-4-4\3---4\3---4\3---4\3---|




 RIFF 5 OUTRO x3

|---------------------------------|
|---------------------------------|
|---------------------------------|
|---------------------------------|
|---------------------------------|
|-2---2---6\5---2---5\3-2-3---2h3-|
|-0---0---4\3---0---3\1-0-1---0h1-|




 FILL 4 END

|---------------------------------|---------------------------------|
|---------------------------------|---------------------------------|
|---------------------------------|---------------------------------|
|---------------------------------|---------------------------------|
|---------------------------------|---------------------------------|
|-2---2---6-5---5-2---3-3-3-3-2-2-|-3-2-2-3-2-2-3-------------------|
|-0---0---4-3---3-0---1-1-1-1-0-0-|-1-0-0-1-0-0-1-------------------|
                              . .     . .   . .  x

            
            
Suggest correction
Creating personal tab
Creating personal tab
You can edit any tab online and save it as your Personal.

You can edit, replace or remove any tab part or add personal notes – all changes will be seen only by you.

Personal tabs can be accessed anytime from any device, even offline.
Learn more »
comments
print report bad tab
guest
You may want to rate the tab now too:
select rating
Wanna post a correction for this tab? Suggest correction