Oops, an error
Loading. Please wait.

Hallowed Point tab

version 3
version 3

Whole song

Interactive

by Slayer
1,502 views 1 this week
1 commentread comment
1 2 3 4 5
2 more votes to show rating
add to favorites
×
Save as Personal and add changes to this tab that will be seen only by you. Learn more ›
×
You can save this tab as Personal to edit and correct it or add notes. All changes will be seen only by you. Learn more »
launch autoscroll
font size
0
reset
how to read this tab
guitar tuner
edit
Autoscroll
slow
fast
+/-
esc
set tempo
stop
Author
1---------------------------------------------------------------------------|
2---------------------------------------------------------------------------|
3---------------------------------------------------------------------------|
4-7-6-----5-4---3-----------------------------------------------------------|
5-5-4-7-6-3-2-5-1------2-------2----0---2--------2-----3--------------------|
6-----5-4-----3-----222-2222222-2323-222-22222222-222--3--------------------|

1----------------------------------------------------------------------------|
2----------------------------------------------------------------------------|
3----------------------------------------------------------------------------|
4-----------------------------5-4---3----------------------------------------|
5----2--------2----0---2------3-2-5-1----2--------2----0---2--------2-----3--|
6-222-22222222-2323-222-222222----3---222-22222222-2323-222-22222222-222--3--|

1----------------------------------------------------------------------------|
2----------------------------------------------------------------------------|
3----------------------------------------------------------------------------|
4----------------------------------------------------------------------------|
5----2--------2----0---2--------2-----3---2--------2----0---2--------2-----3-|
6 222-22222222-2323-222-22222222-222--3222-22222222-2323-222-22222222-222--3-|


1---------------------------------------------------------------------------|
2---------------------------------------------------------------------------|
3---------------------------------------------------------------------------|
4---------------------------------------------------------------------------|
5----2--------2----0---2--------2----3--------------------------------------|
6-222-22222222-2323-222-22222222-222-3--------------------------------------|


1---------------------------------------------------------------------------|
2---------------------------------------------------------------------------|
3---------------------------------------------------------------------------|
4------------------123-----------------2--1---------------------------------|
5----52--------52--123---52--------52---------------------------------------|
6-000--00000000--00---000--00000000--00-00----------------------------------|


1---------------------------------------------------------------------------|
2---------------------------------------------------------------------------|
3-------------------------------------3-------------------------------------|
4------------------123----------------3-------------------------------------|
5----52--------52--123---52--------52-1-------------------------------------|
6-000--00000000--00---000--00000000--0--------------------------------------|


play beggining again  (start at the middle of the second line, after the power chords, 
at the end of the fourth line)

1---------------------------------------------------------------------------|
2---------------------------------------------------------------------------|
3---------------------------------------------------------------------------|
4------------------123-----------------2--1---------------------------------|
5----52--------52--123---52--------52---------------------------------------|
6-000--00000000--00---000--00000000--00-00----------------------------------|


1---------------------------------------------------------------------------|
2---------------------------------------------------------------------------|
3--------------------------------------3------------------------------------|
4------------------123-----------------3------------------------------------|
5----52--------52--123---52--------52--1------------------------------------|
6-000--00000000--00---000--00000000--0--------------------------------------|


1---------------------------------------------------------------------------|
2---------------------------------------------------------------------------|
3----------------------------------------------3-2--------------------------|
4----5---2-------5---2-245---5---2-------5---2--4---------------------------|
5---------------------------------------------------------------------------|
6-000-000-0000000-000-0---000-000-0000000-000-0-----------------------------|

1---------------------------------------------------------------------------|
2---------------------------------------------------------------------------|
3----------------------------------------------3----------------------------|
4----5---2-------5---2-245---5---2-------5---2-3----------------------------|
5----------------------------------------------1----------------------------|
6-000-000-0000000-000-0---000-000-0000000-000-0-----------------------------|

1---------------------------------------------------------------------------|
2---------------------------------------------------------------------------|
3---------------------------------------------------------------------------|
4---------------------------------------------------------------------------|
5-------5---45------------------------45------------------------------------|
6-222222-222--222222220000000033333333--333---------------------------------|
                          Play this 3 times

1---------------------------------------------------------------------------|
2---------------------------------------------------------------------------|
3---------------------------------------------------------------------------|
4---------------------------------------------------------------------------|
5-------4---45-----------------55-5-5---------------------------------------|
6-222222-222--2222222200000000-33-3-3---------------------------------------|

1---------------------------------------------------------------------------|
2---------------------------------------------------------------------------|
3---------------------------------------------------------------------------|
4---------------------------------------------------------------------------|
5---------------------------------------------------------------------------|
6-555555955589555555553333333366666666------0-0-0-0-0-0-0-0-----------------|
              play 4 times


1---------------------------------------------------------------------------|
2---------------------------------------------------------------------------|
3---------------------------------------------------------------------------|
4---------------------------------------------------------------------------|
5-------5---45------------------------45------------------------------------|
6-222222-222--222222220000000033333333--333---------------------------------|
                          Play this 3 times


1---------------------------------------------------------------------------|
2---------------------------------------------------------------------------|
3---------------------------------------------------------------------------|
4---------------------------------------------------------------------------|
5-------4---45-----------------55-5-5---------------------------------------|
6-222222-222--2222222200000000-33-3-3---------------------------------------|


1---------------------------------------------------------------------------|
2---------------------------------------------------------------------------|
3---------------------------------------------------------------------------|
4-4--4--2--5----------------------------------------------------------------|
5-4--4--2--5----------------------------------------------------------------|
6-222220000332--------------------------------------------------------------|
       12 times

1---------------------------------------------------------------------------|
2---------------------------------------------------------------------------|
3---------------------------------------------------------------------------|
4--3---------------3---------------3---------------3------------------------|
5---4-54-43---32-1--4-54-43---32----4-54-43---32-1--4-54-43--32-------------|
6-2--2--2--001--0-2--2--2--001--012--2--2--001--0-2--2--2--12--010----------|


1---------------------------------------------------------------------------|
2---------------------------------------------------------------------------|
3---------------------------------------------------------------------------|
4-4--4--2--5----------------------------------------------------------------|
5-4--4--2--5----------------------------------------------------------------|
6-222220000332--------------------------------------------------------------|
       8 times
1---------------------------------------------------------------------------|
2---------------------------------------------------------------------------|
3---------------------------------------------------------------------------|
4--3---------------3---------------3---------------3---------------4-4------|
5---4-54-43---32-1--4-54-43---32----4-54-43---32-1--4-54-43--32----4-4------|
6-2--2--2--001--0-2--2--2--001--012--2--2--001--0-2--2--2--12--010-2-2------|


                                The End

            
            
Suggest correction
Creating personal tab
Creating personal tab
You can edit any tab online and save it as your Personal.

You can edit, replace or remove any tab part or add personal notes – all changes will be seen only by you.

Personal tabs can be accessed anytime from any device, even offline.
Learn more »
Give kudos to tab author, rate the tab!
1 2 3 4 5
comments
print report bad tab
1 comment total.
0 reply
dimmuborgir6666 503 Oct 11, 2009 12:51 AM

nice man...13 yer old..good start

guest
You may want to rate the tab now too:
select rating
Wanna post a correction for this tab? Suggest correction