Oops, an error
Loading. Please wait.

Hate Worldwide bass

version 1
version 1

Whole song

Interactive

by Slayer
1,955 views 3 this week
1 commentread comment
1 2 3 4 5
x 4
add to favorites
×
Save as Personal and add changes to this tab that will be seen only by you. Learn more ›
×
You can save this tab as Personal to edit and correct it or add notes. All changes will be seen only by you. Learn more »
launch autoscroll
font size
0
reset
guitar tuner
edit
Autoscroll
slow
fast
+/-
esc
set tempo
stop
#----------------------------------PLEASE NOTE---------------------------------#
#This file is the author's own work and represents their interpretation of the #
#song. You may only use this file for private study, scholarship, or research. #
#------------------------------------------------------------------------------#

HATE WORLDWIDE (Bassline)
As recorded by Slayer
(From the 2009 Album WORLD PAINTED BLOOD)

Transcribed by Unregistered
	

Words and Music by Kerry King

Gtr I (Eb Ab Db Gb) - 'Tom Araya'

 Intro
  Q=105
 4/4
  Gtr I
  W          H.      E E   S E S E E S Q  S E   S E S E E S Q..
|----------|-------------|--------------------|-------------------||
|----------|-------------|--------------------|-------------------||
|----------|-------------|--------------------|-------------------||
|----------|-----------1-|-0---0---0-1------1-|-0---0---0-3-------||


 Verse 1
  S S S S S S S S S S S S S S S S   S S S S S S S S S S S S S S S S
|---------------------------------|---------------------------------|
|---------------------------------|---------------------------------|
|-----------------------------0---|-----------------------------0---|
|-0-0-0-0-0-0-0-0-0-0-0-0-0-0---0-|-0-0-0-0-0-0-0-0-0-0-0-0-0-0---0-|


  S S S S S S S S S S S S S S S S   S S S S S S S S S S S S S S S S
|---------------------------------|---------------------------------|
|---------------------------------|---------------------------------|
|-----------------------------0---|-------------------------5---7---|
|-0-0-0-0-0-0-0-0-0-0-0-0-0-0---0-|-0-0-0-0-0-0-0-0-0-0-0-0---0---0-|


  S S S S S S S S S S S S S S S S   S S S S S S S S S S S S S S S S
|---------------------------------|---------------------------------|
|---------------------------------|---------------------------------|
|-----------------------------0---|-----------------------------0---|
|-0-0-0-0-0-0-0-0-0-0-0-0-0-0---0-|-0-0-0-0-0-0-0-0-0-0-0-0-0-0---0-|


  S S S S S S S S S S S S S S S S   S S S S S S S S S S S S S S S S
|---------------------------------|---------------------------------||
|---------------------------------|---------------------------------||
|-----------------------------0---|-------------------------5---7---||
|-0-0-0-0-0-0-0-0-0-0-0-0-0-0---0-|-0-0-0-0-0-0-0-0-0-0-0-0---0---0-||


 Chorus
  S S S S E E S S S S E E   S S S S E E S S S S E E
|-------------------------|-------------------------|
|-------------------------|-------------------------|
|-------------------------|-------------------------|
|-2---2---2-0-2---2---2-5-|-2---2---2-0-3---3---3-0-|


  S S S S S S S S S S S S S S S S   S S S S S S S S S S S S S S S S
|---------------------------------|---------------------------------||
|---------------------------------|---------------------------------||
|---------------------------------|---------------------------------||
|-2-2-2-2-2-2-0-0-2-2-2-2-2-2-5-5-|-2-2-2-2-2-2-0-0-3-3-3-3-3-3-0-0-||


 Solo (Hanneman)
  S S S S S S S S S S S S S S S S   S S S S S S S S S S S S S S S S
|---------------------------------|---------------------------------|
|---------------------------------|---------------------------------|
|---------------------------------|---------------------------------|
|-4-4-4-4-4-4-4-4-4-4-4-4-4-4-5-5-|-4-4-4-4-4-4-4-4-4-4-4-4-4-4-5-5-|


  S S S S S S S S S S S S S S S S   S S S S S S S S S S S S S S S S
|---------------------------------|---------------------------------|
|---------------------------------|---------------------------------|
|---------------------------------|---------------------------------|
|-4-4-4-4-4-4-4-4-4-4-4-4-4-4-5-5-|-4-4-4-4-4-4-4-4-4-4-4-4-4-4-5-5-|


  S S S S S S S S S S S S S S S S   S S S S S S S S S S S S S S S S
|---------------------------------|---------------------------------|
|---------------------------------|---------------------------------|
|---------------------------------|---------------------------------|
|-5-5-5-5-5-5-5-5-5-5-5-5-5-5-6-6-|-5-5-5-5-5-5-5-5-5-5-5-5-5-5-6-6-|


  S S S S S S S S S S S S S S S S   S S S S S S S S S S S S S S S S
|---------------------------------|---------------------------------||
|---------------------------------|---------------------------------||
|---------------------------------|---------------------------------||
|-5-5-5-5-5-5-5-5-5-5-5-5-5-5-6-6-|-5-5-5-5-5-5-5-5-5-5-5-5-5-5-6-6-||


 Verse 2
  S S S S S S S S S S S S S S S S   S S S S S S S S S S S S S S S S
|---------------------------------|---------------------------------|
|---------------------------------|---------------------------------|
|-----------------------------0---|-----------------------------0---|
|-0-0-0-0-0-0-0-0-0-0-0-0-0-0---0-|-0-0-0-0-0-0-0-0-0-0-0-0-0-0---0-|


  S S S S S S S S S S S S S S S S   S S S S S S S S S S S S S S S S
|---------------------------------|---------------------------------|
|---------------------------------|---------------------------------|
|-----------------------------0---|-------------------------5---7---|
|-0-0-0-0-0-0-0-0-0-0-0-0-0-0---0-|-0-0-0-0-0-0-0-0-0-0-0-0---0---0-|


  S S S S S S S S S S S S S S S S   S S S S S S S S S S S S S S S S
|---------------------------------|---------------------------------|
|---------------------------------|---------------------------------|
|-----------------------------0---|-----------------------------0---|
|-0-0-0-0-0-0-0-0-0-0-0-0-0-0---0-|-0-0-0-0-0-0-0-0-0-0-0-0-0-0---0-|


  S S S S S S S S S S S S S S S S   S S S S S S S S S S S S S S S S
|---------------------------------|---------------------------------||
|---------------------------------|---------------------------------||
|-----------------------------0---|-------------------------5---7---||
|-0-0-0-0-0-0-0-0-0-0-0-0-0-0---0-|-0-0-0-0-0-0-0-0-0-0-0-0---0---0-||


 Chorus 2
  S S S S E E S S S S E E   S S S S E E S S S S E E
|-------------------------|-------------------------|
|-------------------------|-------------------------|
|-------------------------|-------------------------|
|-2---2---2-0-2---2---2-5-|-2---2---2-0-3---3---3-0-|


  S S S S S S S S S S S S S S S S   S S S S S S S S S S S S S S S S
|---------------------------------|---------------------------------||
|---------------------------------|---------------------------------||
|---------------------------------|---------------------------------||
|-2-2-2-2-2-2-0-0-2-2-2-2-2-2-5-5-|-2-2-2-2-2-2-0-0-3-3-3-3-3-3-0-0-||


 Solo (King)
  S S S S S S S S S S S S S S S S   S S S S S S S S S S S S S S S S
|---------------------------------|---------------------------------|
|---------------------------------|---------------------------------|
|-5-------5-------5---------------|-5-------5-------5---------------|
|---6-6-6---6-6-6---6-6-6-6-6-6-6-|---6-6-6---6-6-6---6-6-6-6-6-6-6-|


  S S S S S S S S S S S S S S S S   S S S S S S S S S S S S S S S S
|---------------------------------|---------------------------------|
|---------------------------------|---------------------------------|
|-5-------5-------5---------------|-5-------5-------5-5-5-5-4-4-4-4-|
|---6-6-6---6-6-6---6-6-6-6-6-6-6-|---6-6-6---6-6-6-----------------|


  S S S S S S S S S S S S S S S S   S S S S S S S S S S S S S S S S
|---------------------------------|---------------------------------|
|---------------------------------|---------------------------------|
|-5-------5-------5---------------|-5-------5-------5---------------|
|---6-6-6---6-6-6---6-6-6-6-6-6-6-|---6-6-6---6-6-6---6-6-6-6-6-6-6-|


  S S S S S S S S S S S S S S S S   S S S S S S S S S S S S S S S S
|---------------------------------|---------------------------------|
|---------------------------------|---------------------------------|
|-5-------5-------5---------------|-5-------5-------5-5-5-5-4-4-4-4-|
|---6-6-6---6-6-6---6-6-6-6-6-6-6-|---6-6-6---6-6-6-----------------|


  S S S S S S S S S S S S S S S S   S S S S S S S S S S S S S S S S
|---------------------------------|---------------------------------|
|---------------------------------|---------------------------------|
|---------------------------------|---------------------------------|
|-0-0-0-0-0-0-0-0-0-0-0-0-0-0-1-1-|-0-0-0-0-0-0-0-0-0-0-0-0-0-0-1-1-|


  S S S S S S S S S S S S S S S S   S S S S S S S S S S S S S S S S
|---------------------------------|---------------------------------|
|---------------------------------|---------------------------------|
|---------------------------------|---------------------------------|
|-0-0-0-0-0-0-0-0-0-0-0-0-0-0-1-1-|-0-0-0-0-0-0-0-0-0-0-0-0-0-0-1-1-|


  S S S S S S S S S S S S S S S S   S S S S S S S S S S S S S S S S
|---------------------------------|---------------------------------|
|---------------------------------|---------------------------------|
|---------------------------------|---------------------------------|
|-0-0-0-0-0-0-0-0-0-0-0-0-0-0-1-1-|-0-0-0-0-0-0-0-0-0-0-0-0-0-0-1-1-|


  S S S S S S S S S S S S S S S S   S S S S S S S S S S S S S S S S
|---------------------------------|---------------------------------|
|---------------------------------|---------------------------------|
|---------------------------------|---------------------------------|
|-0-0-0-0-0-0-0-0-0-0-0-0-0-0-1-1-|-0-0-0-0-0-0-0-0-0-0-0-0-0-0-1-1-|


  S S S S S S S S S S S S S S S S   S S S S S S S S S S S S S S S S
|---------------------------------|---------------------------------|
|---------------------------------|---------------------------------|
|---------------------------------|---------------------------------|
|-0-0-0-0-0-0-0-0-0-0-0-0-0-0-1-1-|-0-0-0-0-0-0-0-0-0-0-0-0-0-0-1-1-|


  S S S S S S S S S S S S S S S S   S S S S S S S S S Q..
|---------------------------------|-------------------------||
|---------------------------------|-------------------------||
|---------------------------------|-------------------------||
|-0-0-0-0-0-0-0-0-0-0-0-0-0-0-1-1-|-0-0-0-0-0-0-0-0-4-------||


 Verse 3
  S S S S S S S S S S S S S S S S   S S S S S S S S S S S S S S S S
|---------------------------------|---------------------------------|
|---------------------------------|---------------------------------|
|-----------------------------0---|-----------------------------0---|
|-0-0-0-0-0-0-0-0-0-0-0-0-0-0---0-|-0-0-0-0-0-0-0-0-0-0-0-0-0-0---0-|


  S S S S S S S S S S S S S S S S   S S S S S S S S S S S S S S S S
|---------------------------------|---------------------------------|
|---------------------------------|---------------------------------|
|-----------------------------0---|-------------------------5---7---|
|-0-0-0-0-0-0-0-0-0-0-0-0-0-0---0-|-0-0-0-0-0-0-0-0-0-0-0-0---0---0-|


  S S S S S S S S S S S S S S S S   S S S S S S S S S S S S S S S S
|---------------------------------|---------------------------------|
|---------------------------------|---------------------------------|
|-----------------------------0---|-----------------------------0---|
|-0-0-0-0-0-0-0-0-0-0-0-0-0-0---0-|-0-0-0-0-0-0-0-0-0-0-0-0-0-0---0-|


  S S S S S S S S S S S S S S S S   S S S S S S S S S S S S S S S S
|---------------------------------|---------------------------------||
|---------------------------------|---------------------------------||
|-----------------------------0---|-------------------------5---7---||
|-0-0-0-0-0-0-0-0-0-0-0-0-0-0---0-|-0-0-0-0-0-0-0-0-0-0-0-0---0---0-||


 Last Chorus
  S S S S E E S S S S E E   S S S S E E S S S S E E
|-------------------------|-------------------------|
|-------------------------|-------------------------|
|-------------------------|-------------------------|
|-2---2---2-0-2---2---2-5-|-2---2---2-0-3---3---3-0-|


  S S S S S S S S S S S S S S S S   S S S S S S S S S S S S S S S S
|---------------------------------|---------------------------------||
|---------------------------------|---------------------------------||
|---------------------------------|---------------------------------||
|-2-2-2-2-2-2-0-0-2-2-2-2-2-2-5-5-|-2-2-2-2-2-2-0-0-3-3-3-3-3-3-0-0-||


 Last Verse
  S S S S S S S S S S S S S S S S   S S S S S S S S S S S S S S S S
|---------------------------------|---------------------------------|
|---------------------------------|---------------------------------|
|---------------------------------|---------------------------------|
|-2-2-2-0-2-2-2-5-2-2-2-2-3-3-3-3-|-2-2-2-0-2-2-2-5-2-2-2-2-0-0-0-0-|


  S S S S S S S S S S S S S S S S   S S S S S S S S S S S S S S S S
|---------------------------------|---------------------------------|
|---------------------------------|---------------------------------|
|---------------------------------|---------------------------------|
|-2-2-2-0-2-2-2-5-2-2-2-2-3-3-3-3-|-2-2-2-0-2-2-2-5-2-2-3-3-3-3-3-3-|


  S S S S S S S S S E Q  E
|--------------------------*|
|--------------------------*|
|--------------------------*|
|-2-2-2-0-2-2-2-0-2--------*|



Duration Legend
---------------
W - whole; H - half; Q - quarter; E - 8th; S - 16th; T - 32nd; X - 64th; a - acciaccatura
+ - note tied to previous; . - note dotted; .. - note double dotted
Uncapitalized letters represent notes that are staccato (1/2 duration)
Irregular groupings are notated above the duration line
Duration letters will always appear directly above the note/fret number it represents the
duration for.  Duration letters with no fret number below them represent rests.  Multi-
bar rests are notated in the form Wxn, where n is the number of bars to rest for.  Low
melody durations appear below the staff

Tablature Legend
----------------
 h   - hammer-on
 p   - pull-off
 b   - bend
 pb  - pre-bend
 r   - bend release (if no number after the r, then release immediately)
 /\  - slide into or out of (from/to "nowhere")
 s   - legato slide
 S   - shift slide
 - natural harmonic
[n]  - artificial harmonic
n(n) - tapped harmonic
 ~   - vibrato
 tr  - trill
 T   - tap
 TP  - trem. picking
 PM  - palm muting
\n/  - tremolo bar dip; n = amount to dip
 \n  - tremolo bar down
 n/  - tremolo bar up
/n\  - tremolo bar inverted dip
 =   - hold bend; also acts as connecting device for hammers/pulls
 <> - volume swell (louder/softer)
 x   - on rhythm slash represents muted slash
 o   - on rhythm slash represents single note slash

Misc Legend
-----------
 |  - bar
||  - double bar
||o - repeat start
o|| - repeat end
*|  - double bar (ending)
 :  - bar (freetime)
 $  - Segno
 &  - Coda
Tempo markers -  = BPM(8/16=s8/s16), where s8 = swing 8ths, s16 = swing 16ths


            
            
Suggest correction
Creating personal tab
Creating personal tab
You can edit any tab online and save it as your Personal.

You can edit, replace or remove any tab part or add personal notes – all changes will be seen only by you.

Personal tabs can be accessed anytime from any device, even offline.
Learn more »
comments
print report bad tab
1 comment total.
0 reply
todbassist123 31 Mar 01, 2010 08:23 AM

it seriously was not worth it, wh gave you a 5 star? cuz to be honest i this this is in drop c#, to half step, that is the old slayer stuff

guest
You may want to rate the tab now too:
select rating
Wanna post a correction for this tab? Suggest correction