Oops, an error
Loading. Please wait.

Hate Worldwide tab

version 2
version 2

Whole song

Interactive

by Slayer
12,079 views 6 this week
4 commentsread comments
1 2 3 4 5
x 6
add to favorites
×
Save as Personal and add changes to this tab that will be seen only by you. Learn more ›
×
You can save this tab as Personal to edit and correct it or add notes. All changes will be seen only by you. Learn more »
launch autoscroll
font size
0
reset
how to read this tab
guitar tuner
edit
Autoscroll
slow
fast
+/-
esc
set tempo
stop
SLAYER


hate worldwide


Tabbed by Rudy Guzman


guzman_84@hotmail


   gt1
Eb|---------------------------------------------------------------------------------|
Bb|---------------------------------------------------------------------------------|
Gb|---------------------------------------------------------------------------------|
Db|---------------------------------------------------------------------------------|
Ab|-7-------7-------7---8-------8-------8-7-------7-------7---10-------10-------8-7-|
Eb|---0-0-0---0-0-0---0---0-0-0---0-0-0-----0-0-0---0-0-0---0----0-0-0----0-0-0-----|

   gt2
Eb|-----------------------------------------------------------------------------------|
Bb|-----------------------------------------------------------------------------------|
Gb|-----------------------------------------------------------------------------------|
Db|-9-----------------------------------10-9------------------------------------------|
Ab|-7-----------------------------------8--7--------------------------------------3-2-|
Eb|-------------------------------------------------------------------------------1-0-|


   gt1
Eb|------------------------------------------------------------|
Bb|------------------------------------------------------------|
Gb|------------------------------------------------------------|
Db|------------------------------------------------------------|
Ab|-------7-------7---8-------8-------5-7-------7-------7------|
Eb|-0-0-0---0-0-0---0---0-0-0---0-0-0-----0-0-0---0-0-0---0--3-|

   gt2
Eb|------------------------------------------------------------|
Bb|------------------------------------------------------------|
Gb|------------------------------------------------------------|
Db|-----------------------------------7-9--------9------9------|
Ab|-------2-------2---3---------------5-7--------7------7----5-|
Eb|-------0-------0---1--------------------------------------3-|

   verse
Eb|-----------------------------------|
Bb|-----------------------------------|
Gb|-----------------------------------|
Db|-----------------------------------|
Ab|-2-------2-----5---5---4---2—--0---|
Eb|-0-0-0-0---0-0---0---0---0---0---0-|


Eb|----------------------------------|
Bb|----------------------------------|
Gb|----------------------------------|
Db|----------------------------------|
Ab|-2-------2-----5---5---4---5—--7--|
Eb|-0-0-0-0---0-0---0---0---0---0----|


Eb|---------------------------------|
Bb|---------------------------------|
Gb|---------------------------------|
Db|---------------------------------|
Ab|-2-------2---5---5---4---2—--0---|
Eb|-0-0-0-0---0---0---0---0---0---0-|

Eb|----------------------------------|
Bb|----------------------------------|
Gb|----------------------------------|
Db|----------------------------------|
Ab|-2-------2-----5---5---4---5—--7--|
Eb|-0-0-0-0---0-0---0---0---0---0----|


                                  x4
Eb|-----------------------------------|
Bb|-----------------------------------|
Gb|-----------------------------------|
Db|-----------------------------------|
Ab|-2-------2-----5---5---4---2—--0---|
Eb|-0-0-0-0---0-0---0---0---0---0---0-|


Eb|-----------------------------------------------------------------------------|
Bb|-----------------------------------------------------------------------------|
Gb|-----------------------------------------------------------------------------|
Db|-----------------------------------------------------------------------------|
Ab|-2--4-4-4--2--4-4-4--7--4-4-4--2--5-5-5--2--4-4-4--2--4-4-4--2--5-5-5-5-5-5--|
Eb|-0--2-2-2--0—-2-2-2--5--2-2-2--0--3-3-3--0--2-2-2--0--2-2-2--0--3-3-3-3-3-3--|


   solo 1
Eb|-12-13-12-13-12-13-15-13-12-----------------12-13-12-13-15-13-12----------------------|
Bb|----------------------------15-13-12-13-15-----------------------15-13-12-13-15-13-12-|
Gb|--------------------------------------------------------------------------------------|
Db|--------------------------------------------------------------------------------------|
Ab|--------------------------------------------------------------------------------------|
Eb|--------------------------------------------------------------------------------------|

Eb|---------------------------------------15-18-15-----16-20-16-----18-21-18--------------|
Bb|-13-12----12-13-12------------------17-----------18-----------20-----------21-18-19-21-|
Gb|-------14----------14--12-14--14b------------------------------------------------------|
Db|---------------------------------------------------------------------------------------|
Ab|---------------------------------------------------------------------------------------|
Eb|---------------------------------------------------------------------------------------|


                     wah--------------------------------------------------------------|
Eb|-----------------------------------------------------------------------------------|
Bb|-19-18-------------------------------------------------------2-2-0-----3-4-3-4-3---|
Gb|-------21-19-17-----18-21----18-21----18-21------------------2-2-0---5-------------|
Db|-----------------21-------21-------21--------21-19-21~~~---------------------------|
Ab|-----------------------------------------------------------0-----------------------|
Eb|-----------------------------------------------------------------------------------|


    wah----------------------------- bar-------------------------------|
Eb|--------------------------------------------------------------------|
Bb|---5-6-5-6-8-6-5-----7b--8b--9b-------0ah--9b(ah)--11b(ah)----------|
Gb|-7---------------7-5-7b--8b--9b-(ah)--0ah---------------------------|
Db|--------------------------------------------------------------------|
Ab|--------------------------------------------------------------------|
Eb|--------------------------------------------------------------------|

   verse                            x3
Eb|-----------------------------------|
Bb|-----------------------------------|
Gb|-----------------------------------|
Db|-----------------------------------|
Ab|-2-------2-----5---5---4---2—--0---|
Eb|-0-0-0-0---0-0---0---0---0---0---0-|

Eb|----------------------------------|
Bb|----------------------------------|
Gb|----------------------------------|
Db|----------------------------------|
Ab|-2-------2-----5---5---4---5—--7--|
Eb|-0-0-0-0---0-0---0---0---0---0----|


                                   x3
Eb|-----------------------------------|
Bb|-----------------------------------|
Gb|-----------------------------------|
Db|-----------------------------------|
Ab|-2-------2-----5---5---4---2—--0---|
Eb|-0-0-0-0---0-0---0---0---0---0---0-|

Eb|----------------------------------|
Bb|----------------------------------|
Gb|----------------------------------|
Db|----------------------------------|
Ab|-2-------2-----5---5---4---5—--7--|
Eb|-0-0-0-0---0-0---0---0---0---0----|

Eb|-----------------------------------------------------------------------------|
Bb|-----------------------------------------------------------------------------|
Gb|-----------------------------------------------------------------------------|
Db|-----------------------------------------------------------------------------|
Ab|-2--4-4-4--2--4-4-4--7--4-4-4--2--5-5-5--2--4-4-4--2--4-4-4--2--5-5-5-5-5-5--|
Eb|-0--2-2-2--0—-2-2-2--5--2-2-2--0--3-3-3--0--2-2-2--0--2-2-2--0--3-3-3-3-3-3--|

   solo 2
Eb|----------------------------------------------------------------------------------------|
Bb|----------------------------------------------------------------------------------------|
Gb|----------------------------------------------------------------------20-19-17-20-19-17-|
Db|-20-17-------20-17-------20-17--------20-17--------20-19-17--20-19-17-------------------|
Ab|-------20-17-------20-17--------20-17-------20-17---------------------------------------|
Eb|----------------------------------------------------------------------------------------|

Eb|--------------------------15-15-15-15-15-14-14-14-14-15-15-15-15-15-14-14-14-14-------|
Bb|-20-19-17-20-19-17--20b---14-14-14-14-14-14-14-14-14-15-15-15-15-15-14-14-14-14-------|
Gb|---------------------------------------------------------------------------------16b--|
Db|--------------------------------------------------------------------------------------|
Ab|--------------------------------------------------------------------------------------|
Eb|--------------------------------------------------------------------------------------|

   bar------------------------------------------------------------------------------|
Eb|--------------------------------15-18-15----15-19-15------15-18-15----15-19-15---|
Bb|-14h17p14h17p14h17p14h17p14--17----------17-----------17-----------17------------|
Gb|---------------------------------------------------------------------------------|
Db|---------------------------------------------------------------------------------|
Ab|---------------------------------------------------------------------------------|
Eb|---------------------------------------------------------------------------------|

Eb|----15-18-15----------------------------------------------------------------------------|
Bb|-17----------18-15-17-18-17-15----------------------------------------------------------|
Gb|-------------------------------18-15-17-18-17-15----------------------------------------|
Db|-------------------------------------------------18-15-17-18-17-15----------------------|
Ab|-------------------------------------------------------------------18-15-17-18-17-15----|
Eb|-------------------------------------------------------------------------------------17-|

Eb|----------------------------------------------------------------------------------|
Bb|----------------------------------------------------------------------------------|
Gb|-----------------------------------------------------------14-15-17-17tp14-17tp14-|
Db|--------------------------------------------14-15-14-15-17------------------------|
Ab|----14--17--15--14--14--14---14-15-14-15-17---------------------------------------|
Eb|-17-------------------------------------------------------------------------------|

Eb|---------------------------------------------------15-----15------15-----15-----15-----|
Bb|-----------------------------------------------18b----18b----18b-----18b----18b----18b-|
Gb|-16tp13-16tp13-15tp12-15tp12-14tp11--12tp9--0------------------------------------------|
Db|---------------------------------------------------------------------------------------|
Ab|---------------------------------------------------------------------------------------|
Eb|---------------------------------------------------------------------------------------|

                                                                                      wah
   bar/////////                     bar/////                        bar////  ////////  ////
Eb|------------------17-----17----------------19b-19b--19b-19b-19b---------------------0ah-|
Bb|--------------20b----20b----20b------------22b-22b--22b-22b-22b------------0-(0)ah------|
Gb|-0---(0)--------------------------------------------------------------------------------|
Db|---------------------------------0------------------------------------------------------|
Ab|----------------------------------------------------------------------------------------|
Eb|------------------------------------------------------------------0---------------------|

    wah
    bar///   ////   /////    /////          ///////////////
Eb|----------------0---------------------------------------------------------|
Bb|---------0------------------------0---0ah----(0ah)------------------------|
Gb|--------------------------------------------------------------------------|
Db|--------------------------------------------------------------------------|
Ab|--------------------------------------------------------------------------|
Eb|-0------------------------0---------------------------------12\-----------|

    wah
Eb|----------------------------------------------------------------------------------|
Bb|----------------------------------------------------------------------------------|
Gb|----------------------------------------------------------------------------------|
Db|----------------------------------------------------------------------------------|
Ab|-7-------7-------7----8---7---8---11---10-------10-------10---11---8---10---5---7-|
Eb|-0-0-0-0---0-0-0----0---0---0---0----0----0-0-0----0-0-0----0----0---0----0---0---|

Eb|------------------------------------------------------------------|
Bb|------------------------------------------------------------------|
Gb|------------------------------------------------------------------|
Db|------------------------------------------------------------------|
Ab|-7-------7-------7----8---7---8---11---10-------10-------10---11--|
Eb|-0-0-0-0---0-0-0----0---0---0---0----0----0-0-0----0-0-0----0-0---|


   verse                            x3
Eb|-----------------------------------|
Bb|-----------------------------------|
Gb|-----------------------------------|
Db|-----------------------------------|
Ab|-2-------2-----5---5---4---2—--0---|
Eb|-0-0-0-0---0-0---0---0---0---0---0-|


Eb|----------------------------------|
Bb|----------------------------------|
Gb|----------------------------------|
Db|----------------------------------|
Ab|-2-------2-----5---5---4---5—--7--|
Eb|-0-0-0-0---0-0---0---0---0---0----|

                                   x4
Eb|---------------------------------|
Bb|---------------------------------|
Gb|---------------------------------|
Db|---------------------------------|
Ab|-2-------2---5---5---4---2—--0---|
Eb|-0-0-0-0---0---0---0---0---0---0-|

Eb|-----------------------------------------------------------------------------|
Bb|-----------------------------------------------------------------------------|
Gb|-----------------------------------------------------------------------------|
Db|-----------------------------------------------------------------------------|
Ab|-2--4-4-4--2--4-4-4--7--4-4-4--2--5-5-5--2--4-4-4--2--4-4-4--2--5-5-5-5-5-5--|
Eb|-0--2-2-2--0—-2-2-2--5--2-2-2--0--3-3-3--0--2-2-2--0--2-2-2--0--3-3-3-3-3-3--|


Eb|--------------------------------------------|
Bb|--------------------------------------------|
Gb|--------------------------------------------|
Db|--------------------------------------------|
Ab|--------------------------------------------|
Eb|-2-2-2-2--0--2-2-2-2--5--2-2-2-2--3-3-3-3-3-|

Eb|--------------------------------------------|
Bb|--------------------------------------------|
Gb|--------------------------------------------|
Db|--------------------------------------------|
Ab|--------------------------------------------|
Eb|-2-2-2-2--0--2-2-2-2--5--2-2-2-2--0-0-0-0-0-|

Eb|--------------------------------------------|
Bb|--------------------------------------------|
Gb|--------------------------------------------|
Db|--------------------------------------------|
Ab|--------------------------------------------|
Eb|-2-2-2-2--0--2-2-2-2--5--2-2-2-2--3-3-3-3-3-|

Eb|---------------------------------------|
Bb|---------------------------------------|
Gb|---------------------------------------|
Db|---------------------------------------|
Ab|---------------------------------------|
Eb|-2-2-2-2--0--2-2-2-2-0-3-3-3-3-3-3-3-3-|

Eb|--------------------------|
Bb|--------------------------|
Gb|--------------------------|
Db|--------------------------|
Ab|-----------------------5--|
Eb|-2-2-2-2--0--2-2-2-2-0-3--|


hillo son mex
2/08/09

            
            
Suggest correction
Creating personal tab
Creating personal tab
You can edit any tab online and save it as your Personal.

You can edit, replace or remove any tab part or add personal notes – all changes will be seen only by you.

Personal tabs can be accessed anytime from any device, even offline.
Learn more »
comments
print report bad tab
4 comments total. Showing first comments.
0 reply
ShredHead396 200 Aug 05, 2009 12:33 AM

Awesome tab man, 5/5
Thank's a bunch

0 reply
SlashOwns 262 Aug 12, 2009 07:10 PM

damn even better thn mine lol,

then again this took alot more care and time xD

0 reply
ArturoPicazo 10 Feb 19, 2010 01:27 PM

Excelent, thankyou soo much !!

guest
You may want to rate the tab now too:
select rating
Wanna post a correction for this tab? Suggest correction