Oops, an error
Loading. Please wait.

Live Undead album tab

version 1
version 1

Album

Whole song

Interactive

by Slayer
4,541 views 1 this week
no commentswrite comment
1 2 3 4 5
2 more votes to show rating
add to favorites
×
Save as Personal and add changes to this tab that will be seen only by you. Learn more ›
×
You can save this tab as Personal to edit and correct it or add notes. All changes will be seen only by you. Learn more »
launch autoscroll
font size
0
reset
how to read this tab
guitar tuner
edit
Autoscroll
slow
fast
+/-
esc
set tempo
stop
Author
Here’s the Live Undead CD by Slayer that nobody tabbed out yet.
Message me if you need added work or questions.




1.	Black Magic
2.	Die by the Sword
3.	Captor of Sin
4.	The Antichrist
5.	Evil Has No Boundaries
6.	Show No Mercy
7.	Aggressive Perfector



SLAYER

"Black Magic"


h.....Hammer On
PM....Palm Muted
~.....Tremolo-Bar
/.....Slide



Fade in picking some E 

|------------------------------------------------------------------------------| 
|------------------------------------------------------------------------------| 
|------------------------------------------------------------------------------| 
|--------------------------------------------------------------------------X4--| 
|-------7~------7h8---7h8-10-8-5-8-7-------------------------------------------| 
|--0000----0000-----0----------------------------------------------------------| 
PM ....    ....     . 


|------------------------------------------------------------------------------| 
|------------------------------------------------------------------------------| 
|------------------------------------------------------------------------------| 
|-------9-----9/10-------9------5/7----------------------------------------X4--| 
|-------7-----7/8--------7------3/5--------------------------------------------| 
|--0000---0000------0000---0000------------------------------------------------| 
PM ....   ....      ....   .... 


|------------------------------------------------------------------------------| 
|------------------------------------------------------------------------------| 
|------------------------------------------------------------------------------| 
|--------------------------------------------------------------------------X2--| 
|-------7~------7h8---7h8-10-8-5-8-7-------------------------------------------| 
|--0000----0000-----0----------------------------------------------------------| 
PM ....    ....     .


|------------------------------------------------------------------------------| 
|------------------------------------------------------------------------------| 
|------------------------------------------------------------------------------| 
|--9------9-9-10-9-------12-11-10-9------9-9-10-9-------------------------X2---| 
|--7------7-7-8--7-------10-9--8--7------7-7-8--7--------5-4-3-2---------------| 
|----0000----------0000-------------0000-----------0000--3-2-1-0---------------| 
PM   ....          ....             ....           .... 


|------------------------------------------------------------------------------| 
|------------------------------------------------------------------------------| 
|------------------------------------------------------------------------------| 
|--9------9-9-10-9-------12-11-10-9------9-9-10-9--------------------------X1--| 
|--7------7-7-8--7-------10-9--8--7------7-7-8--7--------5-4-3-2---------------| 
|----0000----------0000-------------0000-----------0000--3-2-1-0---------------| 
PM   ....          ....             ....           ....
   Cursed                We've been struck down
          Black magic night              Down in this Hell


|------------------------------------------------------------------------------| 
|------------------------------------------------------------------------------| 
|------------------------------------------------------------------------------| 
|--------------------------------------------------------------------------X1--| 
|--4444--6666---------1111--2222-----------------------------------------------|
|------------------------------------------------------------------------------| 
   Spells surround me day and night 
                       Stricken by the force of evil light


|------------------------------------------------------------------------------| 
|------------------------------------------------------------------------------| 
|------------------------------------------------------------------------------| 
|--9------9-9-10-9-------12-11-10-9------9-9-10-9--------------------------X1--| 
|--7------7-7-8--7-------10-9--8--7------7-7-8--7--------5-4-3-2---------------| 
|----0000----------0000-------------0000-----------0000--3-2-1-0---------------| 
PM   ....          ....             ....           ....
                         The force of evil light


|------------------------------------------------------------------------------| 
|------------------------------------------------------------------------------| 
|------------------------------------------------------------------------------| 
|--9------9-9-10-9-------12-11-10-9------9-9-10-9--------------------------X1--| 
|--7------7-7-8--7-------10-9--8--7------7-7-8--7--------5-4-3-2---------------| 
|----0000----------0000-------------0000-----------0000--3-2-1-0---------------| 
PM   ....          ....             ....           ....
   Cast                  Blinding my eyes 
          Under his spell                Twisting my mind


|------------------------------------------------------------------------------| 
|------------------------------------------------------------------------------| 
|------------------------------------------------------------------------------| 
|--------------------------------------------------------------------------X1--| 
|--4444--6666---------1111--2222-----------------------------------------------| 
|------------------------------------------------------------------------------| 
  Fight to resist the evil inside  
                      Captive of a force of Satan's might


|------------------------------------------------------------------------------| 
|------------------------------------------------------------------------------| 
|------------------------------------------------------------------------------| 
|--9------9-9-10-9-------12-11-10-9------9-9-10-9--------------------------X1--| 
|--7------7-7-8--7-------10-9--8--7------7-7-8--7--------5-4-3-2---------------| 
|----0000----------0000-------------0000-----------0000--3-2-1-0---------------| 
PM   ....          ....             ....           ....
                         A force of Satan's might


|------------------------------------------------------------------------------| 
|------------------------------------------------------------------------------| 
|------------------------------------------------------------------------------| 
|--------------12----11----10~--------------------------12----11----10~--------| 
|-121212121212---1212--1212----------------121212121212---1212--1212-----------| 
|------------------------------------------------------------------------------| 
PM. . . . . .    . .   . .                 . . . . . .    . .   . .
  Fighting the curse                       Break it I must                     


|------------------------------------------------------------------------------| 
|------------------------------------------------------------------------------| 
|------------------------------------------------------------------------------| 
|--------------12----11----10~--------------------------12----11----10~--------| 
|-121212121212---1212--1212----------------121212121212---1212--1212-----------| 
|------------------------------------------------------------------------------| 
PM. . . . . .    . .   . .                 . . . . . .    . .   . .
Laughing in sorrow                         Crying in lust


|------------------------------------------------------------------------------| 
|------------------------------------------------------------------------------| 
|------------------------------------------------------------------------------| 
|--------------------------------------------------------------------------X4--| 
|-------7~------7h8---7h8-10-8-5-8-7-------------------------------------------| 
|--0000----0000-----0----------------------------------------------------------| 
PM ....    ....     .









|------------------------------------------------------------------------------|
|------------------------------------------------------------------------------| 
|------------------------------------------------------------------------------| 
|-------------------9-10------------------------9-9/10---------------------X2--| 
|-------------------7-8-------------------------7-7/-8-------------------------| 
|-0-000-0-000-0-000-----------0-000-0-000-0-000--------------------------------| 
PM  ...   ...   ...             ...   ...   ...


|------------------------------------------------------------------------------| 
|------------------------------------------------------------------------------| 
|------------------------------------------------------------------------------| 
|-------------------9-10------------------------9-9/10---------------------X1--| 
|-------------------7-8-------------------------7-7/-8-------------------------| 
|-0-000-0-000-0-000-----------0-000-0-000-0-000--------------------------------| 
PM  ...   ...   ...             ...   ...   ... 
  My strength slips away  Soon I must fall       
                              Victim of fortune  My sources grow small 


|------------------------------------------------------------------------------| 
|------------------------------------------------------------------------------| 
|------------------------------------------------------------------------------| 
|-------------------9-10------------------------9-9/10---------------------X1--| 
|-------------------7-8-------------------------7-7/-8-------------------------| 
|-0-000-0-000-0-000-----------0-000-0-000-0-000--------------------------------| 
PM  ...   ...   ...             ...   ...   ...
   Life slips away  As demons come forth           
                              Death takes my hand  And captures my soul





GTR.2
|------------------------------------------------------------------------------| 
|------------------------------------------------------------------------------| 
|------------------------------------------------------------------------------| 
|--9------9-9-10-9-------12-11-10-9------9-9-10-9--------------------------X2--| 
|--7------7-7-8--7-------10-9--8--7------7-7-8--7--------5-4-3-2---------------| 
|----0000----------0000-------------0000-----------0000--3-2-1-0---------------| 
PM   ....          ....             ....           ....


OUTRO
|------------------------------------------------------------------------------| 
|------------------------------------------------------------------------------| 
|------------------------------------------------------------------------------| 
|--9-9-9-9-9-9-9-9-9---9-10-9-12~------------------------------------------X1--| 
|--7-7-7-7-7-7-7-7-7---7-8--7-10~----------------------2-----------------------| 
|------------------------------------------------------0-----------------------| 
                              let ring                  



SLAYER - DIE BY THE SWORD
                          From the Album SHOW NO MERCY       
                        Copyright 1987 METAL BLADE RECORDS
                      
                           Version 1.0 - October 1998

        
.  - palm mute                  /  - slide up to
\  - slide down to              ~  - vibrato             
h  - hammer on                  b  - bend 
p  - pull off                        Suffixes for bend    
ph - pinch harmonic                      f - full bend    h - half bend
*  - see comment                         r - release      t - tap bend
X  - percussion mute                     ~ - vibrato bend
@  - slight palm mute           () - ghost note, sustained note

Tuning: Eb(Eb,Ab,Db,Gb,Bb,Eb)                  

Fig. 1
|------------------------------------------------------
|------------------------------------------------------
|------------------------------3-----------------------
|--2-----2-----4-5-2-----2-----3---2-----2-----4-5-----
|--2-----2-----4-5-2-----2-----1---2-----2-----4-5-----
|--0-000-0-000-2-3-0-000-0-000-----0-000-0-000-2-3-0-0-

|----------
|----------
|--3-----5-
|--3-----5-
|--1-----3-
|------0---
End Fig. 1

Fig. 2
|--------------------------------------------------
|--------------------------------------------------
|------------------------------3-------------------
|--2-----2-----5---2-----2-----3---2-----2-----5---
|--2-----2-----5---2-----2-----1---2-----2-----5---
|--0-000-0-000-3---0-000-0-000-----0-000-0-000-3---

|------------------
|------------------
|--------------5---
|--2-----2-----5---
|--2-----2-----3---
|--0-000-0-000-----
	End Fig. 2

Fig. 3
|--------------------------------------------------
|--------------------------------------------------
|--2-----2-----8-7-2-----2-----8-7-2-----2-----8-7-
|--2-----2-----8-7-2-----2-----8-7-2-----2-----8-7-
|--0-000-0-000-6-5-0-000-0-000-6-5-0-000-0-000-6-5-
|--------------------------------------------------

|--------------------
|--------------------
|------10-----9------
|------10-----9------
|--0-0-8----0-7------
|--------------------
		End Fig. 3

Fig. 4
|--------------------------------------------------
|--------------------------------------------------
|--------------------------------------------------
|--------------------------------------------------
|--3-2-------------3-2-------------3-2-------------
|------3-2-5-3-2-0-----3-2-5-3-2-0-----3-2-5-3-2-0-

|----------------
|----------------
|--7---6---------
|--7---6---8---7-
|--5---4---8---7-
|----------6---5-
		End Fig. 4

First solo
E-G-B-B.Bb-E-G-F-B-F


Fig. 5
Gtr.1
|----------------------------------------------------
|----------------------------------------------------
|----------------------------------------------------
|----8-7----------------------8-7--------------------
|----------8-7---8-10---8-7---------8-7---8-10-------
|--0-----0-----0------0-----0-----0-----0------0-8-7-

Gtr.2 (chord changes)
|----|---|---|---|---|---|---|-----------------
|----|---|---|---|---|---|---|-----------------
|----|-4-|-3-|---|---|---|---|-----------------
|--2-|-4-|-3-|-3-|-4-|-3-|-5-|-----------------
|--2-|-2-|-1-|-3-|-4-|-3-|-5-|-----------------
|--0-|---|---|-1-|-2-|-1-|-3-|-0-0-0-0-0-0-0-0-
			End Fig. 5

Second Solo
First part is the same pattern as Fig. 3, but with the root
on the E (6th) string.

Second part
E-G-F#-C-B

End Second Solo



                          SLAYER - CAPTOR OF SIN
                          From the Album SHOW NO MERCY       
                        Copyright 1987 METAL BLADE RECORDS
                      
                           Version 1.0 - October 1998


.  - palm mute                  /  - slide up to
\  - slide down to              ~  - vibrato             
h  - hammer on                  b  - bend 
p  - pull off                        Suffixes for bend    
ph - pinch harmonic                      f - full bend    h - half bend
*  - see comment                         r - release      t - tap bend
X  - percussion mute                     ~ - vibrato bend
@  - slight palm mute           () - ghost note, sustained note

Tuning: Eb(Eb,Ab,Db,Gb,Bb,Eb)                  


Fig. 1
|-----------------------------------------------------
|-----------------------------------------------------
|-----------------------------------------------------
|--------------------------------------------5--------
|--------------------------------------------5--------
|--2-2-2-5-3-2-2-2-2-3-2-0-2-2-2-5-3-2-2-2-2-3--------
   |_|_| |_|_| |_|_| |_|_| |_|_| |_|_| |_|_| 

|-----------------------------------------------------
|-----------------------------------------------------
|--------------------------------------------5--------
|--------------------------------------------5--------
|--------------------------------------------3--------
|--2-2-2-5-3-2-2-2-2-3-2-0-2-2-2-5-3-2-2-2-2----------
   |_|_| |_|_| |_|_| |_|_| |_|_| |_|_| |_|_|
                                           End Fig. 1

Fig. 2
|--------------------------------------------------
|--------------------------------------------------
|------------------------------3-------------------
|--5>4-------------------------3---5-4-------------
|--5>4-------------------------1---5-4-------------
|--3>2-2-2-2-2-2-2-2-2-2-3-0-0-----3>2-2-2-2-2-2-2-
   |___|_| |_|_|_| |_|_|_| |_|_|__ |___|_| |_|_|_| 

|-----------------
|-----------------
|--------------5--
|--------------5--
|--------------3--
|--2-2-2-3-0-0----
   |_|_|_| |_|_|__
             End Fig. 2

Fig. 3
|------------------------------------------------------
|------------------------------------------------------
|------------------4-------------------3---------------
|------------------4-------------------3---------------
|------------------2-------------------1---------------
|--2h3h5-2h3h5-0-0-----2h3h5-2h3h5-0-0-----2h3h5-2h3h5-
   |_|_| |_|_|         |_|_| |_|_|         |_|_| |_|_|

|-----------------------------
|-----------------------------
|------4-------------------8--
|------4-------------------8--
|------2-------------------6--
|--0-0-----2h3h5-2h3h5-0-0----
           |_|_| |_|_|
                           End Fig. 3

Fig. 4
|----------------------------------
|----------------------------------
|----------------------------------
|------------------2-------4-3-2---
|--2-------4-3-2-----3-2-1-------3-
|----3-2-1-------3-----------------


Fig. 5
|------------------------------------------------------
|------------------------------------------------------
|----------9>8-12>11---------6>5-------------9>8-12>11-
|----------9>8-12>11---------6>5-6>5---------9>8-12>11-
|----------7>6-10>-9---------4>3-6>5---------7>6-10>-9-
|--0-0-0-0-----------0-0-0-0-----4>3-0-0-0-0-----------

|----------------
|----------------
|----------------
|----------9-8-7-
|--7-----7-------
|----8-7---------
               End Fig. 5

Fig. 6
|------------------------------------------------
|------------------------------------------------
|--5-----------------8-----7-----------12-----11-
|--5-----4-----5-----8-----7-----8-----12-----11-
|--3-----4-----5-----6-----5-----8-----10------9-
|--------2-----3-----------------6---------------


That is basically all the rhythm parts; though there are a few details 
left out.  Use your ears--you should be able to figure it out.



Artist: Slayer
  Song: Antichrist

Legend:
       H-----Hanmer-on
       P-----Pull-off
      Pm-----Palm Mute
       T-----Tapping
      /\-----Slide
       B-----Bend
       /-----W/Trem
      / 

Intro

                          4x¦                          3x¦
Eb--------------------------¦----------------------------¦---------------
Bb--------------------------¦----------------------------¦---------------
Gb--------------------------¦----------------------------¦---------------
Db----4-2-------4-2-------4-¦----4-2---------4-2-------4-¦----4-2--------
Ab--------4-3-------4-3---2-¦--------4-3---------4-3---2-¦--------4-3----
Eb-2----------2---------2---¦-0-----------2----------2---¦-2-------------
 
                     Verse

Eb-------------------¦---------------------------------------------------
Bb-------------------¦---------------------------------------------------
Gb-------------------¦---------------------------------------------------
Db---4-2-------------¦---9/10----9/10--------------------7------9/10---9/10
Ab-------4-3-2-------¦pm-7/8--pm-7/8--pm-9/10-pm--9/10pm-5---pm-7/8--pm7/8
Eb-2-----------4-3-2-¦-0-------0------0--7/8---0--7/8--0------0-------0--


                          ¦alternative ending ¦chorus
Eb---¦--------------------¦-------------------¦--------------------------
Bb---¦--------------------¦-------------------¦-10-10----10-6---6/6---6/10
Gb---¦--------------------¦-------------------¦-9--9-----9--7---7/5---5/9
Db---¦------------------12¦--7-5--------------¦-7--7-----7--5---5/3---3/7
Abpm-¦9/10-pm--9/10--pm-10¦------7-6-5--------¦--------------------------
Eb-0-¦7/8---0--7/8---0----¦-------------7-6-5-¦--------------------------


                             under solo 1                       further
                                                                 in solo
Eb--------------------------¦----------------------------------¦---------
Bb-10--------10--------13--/¦----------------------------------¦---------
Gb-9---------9---------12--/¦----------5----4------------------¦---------
Db-7---------7---10----10--/¦-2--------5----4--2---------5---7-¦-9---9---
Ab---------------8----------¦-2--------3----2--2---------5---7-¦-7---7---
Eb--------------------------¦-0--000000--------0--000000-3---5-¦-------00


                                ¦faster part of solo              ending
Eb------------------------------¦--------------------------------¦-------
Bb------------------------------¦--------------------------------¦-------
Gb------------------------------¦5---------------4---------------¦-------
Db--9--9----------44-4----------¦5---------------4---------------¦/777-7-
Ab--7--7----7--7--22-2--33--3---¦33333333333333332222222222222222¦/555-5-
Eb00-----00-5--5--------11--1-00¦--------------------------------¦-------



Eb--------------------¦-¦------------------------------------------------
Bb--------------------¦-¦------------------------------------------------
Gb--------------------¦-¦------------------------------------------------
Db-999-9-777-7-555-5-2¦-¦------------------------------------------------
Ab-777-7-555-5-333-3-0¦-¦------------------------------------------------
Eb--------------------¦-¦------------------------------------------------


  GUITAR SOLO              -------
     /full            /\/\/       \   /full
Eb-22---------------22-------------22-------22p19-22p21p1920p19p17-18p17p15
Bb-----------------------------------------------------------------------
Gb-----------------------------------------------------------------------
Db-----------------------------------------------------------------------
Ab-----------------------------------------------------------------------
Eb-----------------------------------------------------------------------


                         /3/4/full----------      full    /\/\/
Eb-17p16p14-15p14--12---/-------------------\----/-------/---------------
Bb--------------------13-----------------------13------13---------/10----
Gb-----------------------------------------------------------------------
Db-----------------------------------------------------------------------
Ab-----------------------------------------------------------------------
Eb-----------------------------------------------------------------------


                                                  full
Eb-----------------------------------------------/-----------------------
Bb-13p11p10-11p10-13p11p10-11p10-------15--18-18/--------(18)/-----------
Gb-------------------------------12/17-----------------------------------
Db-----------------------------------------------------------------------
Ab-------------------------------------------------------------17p15h17--
Eb-----------------------------------------------------------------------



Eb-------------------------------------------181817151517181817151517181817
Bb-------------------------------------15h17-----------------------------
Gb--------------------15---15h17p15h17-----------------------------------
Db15h17p15h17p15h17-17--17-----------------------------------------------
Ab-----------------------------------------------------------------------
Eb-----------------------------------------------------------------------



Eb15151718181718182022171723171722171720171721717241717221717201717221717
Bb-----------------------------------------------------------------------
Gb-----------------------------------------------------------------------
Db-----------------------------------------------------------------------
Ab-----------------------------------------------------------------------
Eb-----------------------------------------------------------------------



Eb2417172217172017172217172417172017-----1717----------------------------
Bb-------------------------------------------20/-------------------------
Gb-----------------------------------------------------------------------
Db-----------------------------------------------------------------------
Ab-----------------------------------------------------------------------
Eb-----------------------------------------------------------------------


                               full/\/\/\                      vib-------¦
Eb----------------------------/-------------/3/4/\/\---------------------
Bb---------------vibrato-----/-------------/------------15-17-17---------
Gb-------3/////12/\/\/\/\--12------------12---------/10------------------
Db-----------------------------------------------------------------------
Ab-----------------------------------------------------------------------
Eb-----------------------------------------------------------------------


       full----------------------      /full
Eb----/--------------------------\----/----------------------------------
Bb-17/----------------------------\-17--------171717/151515/171717/191919
Gb-----------------------------------------------------------------------
Db-----------------------------------------------------------------------
Ab-----------------------------------------------------------------------
Eb-----------------------------------------------------------------------


                                   /     vib.                      vib---¦
Eb--------------------------------/--------------------------------------
Bb/202020/222222/202020/171717--17-----17--------17p15--15--17p15--------
Gb----------------------------------------------------16--16-----16------
Db-----------------------------------------------------------------------
Ab-----------------------------------------------------------------------
Eb-----------------------------------------------------------------------



Eb----------------0-3p0-5p3p0-3p0-5p3p0-3p0-5p3p0-3p0-5p3p0-5p0-7p5p0-5p0
Bb-----------------------------------------------------------------------
Gb-----------------------------------------------------------------------
Db-----------------------------------------------------------------------
Ab-----------------------------------------------------------------------
Eb-----------------------------------------------------------------------

                                 8 times
                                 ---------------------------------------¦
Eb7p5p0-5p0-7p0h5p0-7p0-0-3p0-12-15p12p10--------------------------------
Bb-----------------------------------------------------------------------
Gb-----------------------------------------------------------------------
Db-----------------------------------------------------------------------
Ab-----------------------------------------------------------------------
Eb-----------------------------------------------------------------------



Eb15p12-15p12-15p12------------------------------------------------------
Bb------------------15p12-15p12-15p12---------------------------12-------
Gb------------------------------------14p12-14p12-14p12----\14-----------
Db-----------------------------------------------------14/---------------
Ab-----------------------------------------------------------------------
Eb-----------------------------------------------------------------------

          vib.
       /---------------¦          /full          /full
Eb----/--------------------------/--------------/------------------------
Bb--15-------------------15/17-17---------/20-20-------------------------
Gb-----------------------------------------------------------------------
Db-----------------------------------------------------7p9-10p9p7-12p10p9
Ab-----------------------------------------------------------------------
Eb-----------------------------------------------------------------------


                                end of solo
Eb---------------------------------¦¦------------------------------------
Bb---------------------------------¦¦------------------------------------
Gb---------------------------------¦¦------------------------------------
Db-----------------7-5-------------¦¦------------------------------------
Ab-12p10p9-10p9p7------7-6-5-------¦¦------------------------------------
Eb---------------------------7-6-5-¦¦------------------------------------



                   SLAYER
                       Evil has no boundaries

--------------------------------------------------------------------------------

  rhy. fig 1
e:----------------------------------|-------------------------------|
B:----------------------------------|-------------------------------|
G:----------------------------------|-------------------------------|
D:----------------------------------|-------------------------6---7-|
A:--5-7-------------5-7-------------|-5-7-------------9---7---4---5-|
E:--0---0-0-0-0-0-0-0---0-0-0-0-0-0-|-0---0-0-0-0-0-0-7---5---------|


                                                  end of rhy fig 1 (play 8x)
e:----------------------------------|-------------------------------|
B:----------------------------------|-------------------------------|
G:----------------------------------|-------------------------------|
D:----------------------------------|-------------------------10----|
A:-5-7--------------5-7-------------|-5-7--------------9---7---8----|
E:-0---0-0-0-0-0-0--0---0-0-0-0-0-0-|-0---0-0-0-0-0-0--7---5--------|


  rhy fig 2
e:-------------------------------|-----------------------------|
B:-------------------------------|-----------------------------|
G:-------------------------------|-----------------------------|
D:--4----------------------------|-4--------------7------6-----|
A:--2--------2--------5-------4--|-2------2-------5------4-----|
E:-----------0--------3-------2--|--------0--------------------|

                                                 end of rhy. fig 2
e:--------------------------------|-------------------------------|
B:--------------------------------|-------------------------------|
G:--------------------------------|-------------------------------|
D:--4-----------------------------|--4-------------7------9-------|
A:--2------2-------5------4-------|--2------2------5------7-------|
E:---------0-------3------2-------|---------0---------------------|

  play rhy fig 1 (4x)


  rhy fig 3
e:-------------------------------------|----------------------------|
B:-------------------------------------|----------------------------|
G:-------------------------------------|----------------------------|
D:-------------------------------------|-------------------9-7-9-10-|
A:-------------------------------------|-------------------7-5-7-8--|
E:--7-7-7-7--7-7-7-7--7-7-7-7--7-7-7-7-|-7-7-7-7--7-7-7-7-----------|


                                                        end of rhy fig 3
e:-------------------------------------|----------------------------|
B:-------------------------------------|----------------------------|
G:-------------------------------------|----------------------------|
D:-------------------------------------|-------------------9-7--12--|
A:-------------------------------------|-------------------7-5--10--|
E:-7-7-7-7--7-7-7-7--7-7-7-7--7-7-7-7--|-7-7-7-7--7-7-7-7-----------|

  play rhy fig 2

  rhy fig 4
e:------------------------------------|--------------------------------------|
B:------------------------------------|--------------------------------------|
G:------------------------------------|--------------------------------------|
D:------------------------------------|--------------------------------------|
A:-0-0-0-0--0-0-0-0--0-0-0-0--0-0-0-0-|-0-0-0-0--0-0-0-0--0-0-0-0-0-0-0-0----|
E:------------------------------------|--------------------------------------|


                                       end of rhy fig 4--| rhy fig 5
                                       (play 4 times)
e:------------------------------------|------------------|---------------|
B:------------------------------------|------------------|---------------|
G:------------------------------------|------------------|---------------|
D:------------------------------------|-5---4-5----4-5-7-|-7-------------|
A:-0-0-0-0--0-0-0-0--0-0-0-0--0-0-0-0-|-3---2-3----2-3-5-|-9-------------|

E:------------------------------------|------------------|---------------|


                                     end of rhy fig 5 (play 4 times)
e:----------------|-----------------|------------------|
B:----------------|-----------------|------------------|
G:----------------|-----------------|------------------|
D:-5--------------|--7--------------|-5---4-5---4-5-7--|
A:-3--------------|--5--------------|-3---2-3---2-3-5--|
E:----------------|-----------------|------------------|


  rhy fig 6
e:------------------------------------|------------------------------------|
B:------------------------------------|------------------------------------|
G:------------------------------------|------------------------------------|
D:--7---------------------------------|-5----------------------------------|
A:--9---------------------------------|-3----------------------------------|
E:-----0-0--0-0-0-0--0-0-0-0--0-0-0-0-|----0-0--0-0-0-0--0-0-0-0--0-0-0-0--|

                                        end of rhy fig 6 (play 4 times)
e:------------------------------------|--------------------|
B:------------------------------------|--------------------|
G:------------------------------------|--------------------|
D:-7----------------------------------|-5----4-5----4-5-7--|
A:-5----------------------------------|-3----2-3----2-3-5--|
E:----0-0--0-0-0-0--0-0-0-0--0-0-0-0--|--------------------|


e:--------------------|----------------------|-----------------------|
B:--------------------|----------------------|-----------------------|
G:--------------------|----------------------|-----------------------|
D:--5-----------------|-8--------------------|-----------------------|
A:--3-----------------|-6--------------------|-5---------------------|
E:--------------------|----------------------|-3---------------------|


e:-----------------------|-----------------------|-----------------------|
B:-----------------------|-----------------------|-----------------------|
G:-----------------------|-----------------------|-----------------------|
D:-----------------------|-5---------------------|-8---------------------|
A:-7----3----8----7------|-3---------------------|-6---------------------|
E:-5----1----6----5------|-----------------------|-----------------------|


e:-----------------------|----------------------------|
B:-----------------------|----------------------------|
G:-----------------------|----------------------------|
D:-----------------------|----------------------7-----|
A:-3---------------------|-7-----5------4-------5-----|
E:-1---------------------|-5-----3------2-------------|


e:-------------------------------------------|--------------|
B:-------------------------------------------|--------------|
G:-------------------------------------------|--------------|
D:-------------------------------------------|-12-----------|
A:-2-----------------------------------------|-10-----------|
E:-0-----------------------------------------|-0------------|


--------------------------------------------------------------------------------
evil has no boundries (solo)

album: show no mercy

slayer


solo 1

e:17b-17b-21b-21b-18-18-19-18-21-etc-18-19-21-----------------------------|
B:--------------------------------------------21-18-21b-------------------|
G:-------------------------------------------------------4-5-7-5-4--------|
D:-----------------------------------------------------------------7-4-5-7|
A:------------------------------------------------------------------------|
E:------------------------------------------------------------------------|


e:-----------------------18-21-18-22-18-21-18-22-etc----------------------|
B:-------------------6-------------------------------20b---20b------------|
G:-------------4-5-7------------------------------------------------------|
D:-5-4---4-5-7------------------------------------------------------------|
A:-----7------------------------------------------------------------------|
E:------------------------------------------------------------------------|

solo 2
   bar  bar  bar  bar /\/\/\/\/\/  bar/\/\/\/\/\/\/\/\/\/ bar/\/\/\/\
e:------------------------------------------------------------------------|
B:-----16--------16----(16)--(16)------16h17h16h17h16etc----16h17p16h17etc|
G:-19-------19------------------------------------------------------------|
D:------------------------------------------------------------------------|
A:------------------------------------------------------------------------|
E:------------------------------------------------------------------------|

   bar/\/\/\/\/\/\/
e:----------------------------15-18-15-18-------------------------------------|
B:-18h19p18h19p18etc--20b-20b-------------15-18-15-18-------------------------|
G:----------------------------------------------------15-17-15-17-------------|
D:----------------------------------------------------------------15-17-15-17-|
A:----------------------------------------------------------------------------|
E:----------------------------------------------------------------------------|


e:---------------------------------15h16p15h16p15etc-18h19p18h19p18etc--21b-21b-21b\-|
B:-----------------16p15h16p1h16etc--------------------------------------------------|
G:-----------------------------------------------------------------------------------|
D:-----------------------------------------------------------------------------------|
A:-15-17-15-17-----------------------------------------------------------------------|
E:-------------18\-------------------------------------------------------------------|

solo 3
3times3times3times3times
e:12p9----12p9----etc-17p14----17p14----etc----------*-----*-----*-----*------|
B:-----12------12-----------17-------17----------17b-*17p14*18p15*19p16*20p17-|
G:-------------------------------------------17b-----*-----*-----*-----*------|
D:---------------------------------------------------*-----*-----*-----*------|
A:---------------------------------------------------*-----*-----*-----*------|
E:---------------------------------------------------*-----*-----*-----*------|

                   2 times                       3times
e:--------------*-------------|-----20-20-20-20-|------*---------------------------|
B:--------------*-------------|7/21-------------|------*---------------------------|
G:12h14p12----12*-12h14p12----|-----------------|-0-3-0*5-0-3-5-0-5-7-0-7-0-9-0-10-|
D:---------14---*----------14-|-----------------|------*---------------------------|
A:--------------*-------------|-----------------|------*---------------------------|
E:--------------*-------------|-----------------|------*---------------------------|

                                                           bar
e:-------------------------------------------------------------19~~~~--------------|
B:---------------------------------------------------------------------------------|
G:0-9-0-10-0-12-0-10-0-12-0-14-0-12-0-14-0---14b-14b-14b---------------------------|
D:---------------------------------------------------------------------3/-15h17p15-|
A:--------------------------------------------------------0------------------------|
E:---------------------------------------------------------------------------------|


                                               bar    bar       vib.
e:--------------------------------------19~~~--------------------------------|
B:---------------------------3/20-20-19-------------5AH-----19b-(19)-(19)----|
G:--------------------------------------------------5AH----------------------|
D:14h16p14-13h15p13-12h14p12-------------------------------------------------|
A:---------------------------------------------------------------------------|
E:---------------------------------------------0-----------------------------|

e:16-17-16-17-19------------------------------------------------------------------|
B:---------------19-16-17-19-17-16------------------------------------------------|
G:---------------------------------19-16-17-19-17-16-16-16-16-16-16-16-16-17-16-17|
D:--------------------------------------------------------------------------------|
A:--------------------------------------------------------------------------------|
E:--------------------------------------------------------------------------------|

                           repeat 2 times
e:-----------------------*----------------------*-------------------------------------|
B:-----------------------*----------------------*-------------------12-13-15-13-14-16-|
G:-----------------------*14-13h16--13-14-13--16*-14-13h16-13-14-16-------------------|
D:19-16-17-19-17-16------*----------------------*-------------------------------------|
A:------------------19-17*----------------------*-------------------------------------|
E:-----------------------*----------------------*-------------------------------------|


6 times
e:-------------------------------------------------------19b--19b----19*---18-19-18|
B:-14-15-17-15-16-18-16-17-19-17-18-20-18-19-21-19-20-22----------19---*19---------|
G:---------------------------------------------------------------------*-----------|
D:---------------------------------------------------------------------*-----------|
A:---------------------------------------------------------------------*-----------|
E:---------------------------------------------------------------------*-----------|

e:16-17-16-17-19-----------------------------------------------------------------|
B:---------------19-16-17-19-17-16--19b------------------------------------------|
G:----------------------------------18b------------------------------------------|
D:-------------------------------------------------------------------------------|
A:-------------------------------------------------------------------------------|
E:-------------------------------------------------------------------------------|
---------------------------------------------------------------------------------|


SLAYER
                           Show no mercy
           

  intro : drums


e:----------------|-----------------|-----------------|---------------------|
B:----------------|-----------------|-----------------|---------------------|
G:----------------|-----------------|-----------------|---------------------|
D:-9--------------|--5--------------|-----------------|---------------------|
A:-7--------------|--3--------------|-5---------------|-7---------9---------|
E:----------------|-----------------|-3---------------|-5---------7---------|

  rhy fig 1 :                                            1,2,3--¿ 4--------¿
e:------------------------------------|--------------------------|----------|
B:------------------------------------|--------------------------|----------|
G:------------------------------------|--------------------------|----------|
D:------------------------------------|-------------------7-10-9-|-12-11--7-|
A:------------------------------------|-------------------5--8-7-|-10--9--5-|
E:-0-0-0-0--0-0-0-0--0-0-0-0--0-0-0-0-|-0-0-0-0--0-0-0-0---------|----------|



   rhy fig 1



  rhy fig 2:  (play 2 times)
e:---------------------------------|----------------------------------------|
B:---------------------------------|----------------------------------------|
G:---------------------------------|----------------------------------------|
D:---------------------------------|-------------7-7------------------------|
A:--7-9-9---7-9-9---7-5-5---7-9-9--|--7-9-9----7-5-5-----3-5-5-----7-9-9----|
E:--5-7-7---5-7-7---5-3-3---5-7-7--|--5-7-7----5---------1-3-3-----5-7-7----|


   rhy fig 1 (2 times)
   rhy fig 2 (2 times)



   rhy fig 3:                                          1,3-----¿ 2,4-------¿
e:----------------------------------|---------------------------|-----------|
B:----------------------------------|---------------------------|-----------|
G:----------------------------------|---------------------------|-----------|
D:-9---------------9----------------|-9----------------11-12-11-|-----------|
A:-7---------------7----------------|-7-----------------9-10--9-|--5--7-10--|
E:----0-0--0-0-0-0----0-0--0-0-0-0--|----0-0--0-0-0-0-----------|--3--5--8--|


   rhy fig 3 (3 times)



   rhy fig 4:  (play 3 times)
e:------------------------------------|-------------------------------------|
B:------------------------------------|-------------------------------------|
G:--5----------------5----------------|--3-----------------5----------------|
D:--5----------------5----------------|--3-----------------5----------------|
A:----3-3---3-3-3-3----3-3---3-3-3-3--|----1-1---1-1-1-1-----3-3---3-3-3-3--|
E:------------------------------------|-------------------------------------|



e:------------------------------------|------------------------------------|
B:------------------------------------|------------------------------------|
G:--5----------------5----------------|--3---------------------------------|
D:--5----------------5----------------|--3---------------------------------|
A:----3-3---3-3-3-3----3-3---3-3-3-3--|----1-1---1-1-1-1--2----------------|
E:------------------------------------|-------------------0----------------|




   (play 2 times)
e:-------------------------------------|------------------------------------|
B:-------------------------------------|------------------------------------|
G:-------------------------------------|------------------------------------|
D:-------------------------------------|------------------------------------|
A:-0h2-2-2--2-2-2-2--5p2-2-2--2-2-2-2--|-0h2-2-2--2-2-2-2--5p2-2-2--2-2-2-2-|
E:-------------------------------------|------------------------------------|

                                        1-------------¿ 2------------¿
e:-------------------------------------|---------------|--------------------|
B:-------------------------------------|---------------|--------------------|
G:-------------------------------------|---------------|--------------------|
D:-------------------------------------|------7---5----|-------7---9--------|
A:-0h2-2-2--2-2-2-2--5p2-2-2--2-2-2-2--|--2---5---3----|---2---5---7--------|
E:-------------------------------------|--0------------|---0----------------|



  (play 2 times)
e:-------------------------------------|------------------------------------|
B:-------------------------------------|------------------------------------|
G:-------------------------------------|--------------9-9-------------------|
D:-9-11-11---9-11-11---9-7-7---9-11-11-|--9-11-11---9-7-7---5-7-7---9-11-11-|
A:-7--9--9---7--9--9---7-5-5---7--9--9-|--7--9--9---7-------3-5-5---7--9--9-|
E:-------------------------------------|------------------------------------|



  (play 2 times)
e:--------------------------------|--------------------------------|---------
B:--------------------------------|--------------------------------|---------
G:-5---------------5--------------|-3---------------5--------------|-5-------
D:-5---------------5--------------|-3---------------5--------------|-5-------
A:---3-3--3-3-3-3----3-3--3-3-3-3-|---1-1--1-1-1-1----3-3--3-3-3-3-|---3-3--3
E:--------------------------------|--------------------------------|---------

                                             1----------¿ 2---------------¿
e:-----------------------|-------------------------------|------------------|
B:-----------------------|-------------------------------|------------------|
G:--------5--------------|--3----------------------------|------------------|
D:--------5--------------|--3--------------------7---7---|------------------|
A:-3-3-3----3-3--3-3-3-3-|----1-1---1-1-1-1---1--5---5---|----2---2--2------|
E:-----------------------|-------------------------------|----0---0--0------|


                                                        1,3------¿ 2-------¿
e:------------------------------------|---------------------------|---------|
B:------------------------------------|---------------------------|---------|
G:------------------------------------|---------------------------|---------|
D:-7\9---------------7\9--------------|-7\9--------------11-12-11-|---------|
A:-5\7---------------5\7--------------|-5\7---------------9-10--9-|-5--7-10-|
E:-----0-0--0-0-0-0------0-0--0-0-0-0-|-----0-0--0-0-0-0----------|-3--5--8-|


   4--------------------------------¿
e:------------------------------------|-------------------------------------|
B:------------------------------------|-------------------------------------|
G:------------------------------------|-------------------------------------|
D:-----5---4-----5---4------5---4-----|-------------------------------------|
A:--5--3---2--5--3---2--5---3---2--2--|-(2)---------------------------------|
E:--3---------3---------3----------0--|-(0)---------------------------------|



SLAYER - AGGRESSIVE PERFECTOR
                          From the Album SHOW NO MERCY
                       Copyright 1987 METAL BLADE RECORDS
                      
            

.  - palm mute                  /  - slide up to
\  - slide down to              ~  - vibrato             
h  - hammer on                  b  - bend 
p  - pull off                        Suffixes for bend    
ph - pinch harmonic                      f - full bend    h - half bend
*  - see comment                         r - release      t - tap bend
X  - percussion mute                     ~ - vibrato bend
@  - slight palm mute           () - ghost note, sustained note

Tuning Eb(Eb,Ab,Db,Gb,Bb,Eb)

The intro chords are  G F# F F F F  E

|---------------------------------------------------------|
|---------------------------------------------------------|
|-101010101010--------------------------------------------|
|-------------------------12-11---12-11--12-11--7-99------|
|--------------/x---------10\9----10\9---10\9---5-77------|
|-------------/x------000------000----000-----------------|
 
(the /x means "slide up to nowhere in particular")

 "Haunting down.... on the knees...."
|--------------------------------------------------|
|--------------------------------------------------|
|--------------------------------------------------|
|---4--2-4----10-8-10-----4--2-4-5----10-9-7-------|
|---2--0-2----8--6-8------2--0-2-3----8--7-5-------|
|--------------------------------------------------|

Interlude  B A# D C# 


|--------------------------------------------------|
|--------------------------------------------------|
|--------------------------------------------------|
|--------------------------------------------------|
|-2p0-2-0-2-0--------------------------------------|
|-------------3-0----------------------------------|

Solo rythm (interlude)

For outro


|---------------------------------------------------|
|---------------------------------------------------|
|---------------------------------------------------|
|--------4-4-4--5-5-5-------------------------------|
|--------2-2-2--3-3-3-------------------------------|
|-000000--------------------------------------------|

Repeat this like 4 times and end in a E power chord.

            
            
Suggest correction
Creating personal tab
Creating personal tab
You can edit any tab online and save it as your Personal.

You can edit, replace or remove any tab part or add personal notes – all changes will be seen only by you.

Personal tabs can be accessed anytime from any device, even offline.
Learn more »
Give kudos to tab author, rate the tab!
1 2 3 4 5
comments
print report bad tab
guest
You may want to rate the tab now too:
select rating
Wanna post a correction for this tab? Suggest correction