Oops, an error
Loading. Please wait.

Live Undead tab

version 2
version 2

Whole song

Interactive

by Slayer
8,472 views 9 this week
2 commentsread comments
1 2 3 4 5
1 last vote to show rating
add to favorites
×
Save as Personal and add changes to this tab that will be seen only by you. Learn more ›
×
You can save this tab as Personal to edit and correct it or add notes. All changes will be seen only by you. Learn more »
launch autoscroll
font size
0
reset
how to read this tab
guitar tuner
edit
Autoscroll
slow
fast
+/-
esc
set tempo
stop
#----------------------------------PLEASE NOTE---------------------------------#
#This file is the author's own work and represents their interpretation of the #
#song. You may only use this file for private study, scholarship, or research. #
#------------------------------------------------------------------------------#

LIVE UNDEAD
As recorded by Slayer
(From the 1988 Album SOUTH OF HEAVEN)

Transcribed by Fenian
	

Words by Tom Araya & Kerry King Music by Jeff Hanneman

A5
5 7 x x x x
	
Bb5
6 8 x x x x
	
Db5
9 11 x x x x
	
C5
8 10 x x x x

E5
12 14 x x x x
	
Eb5
11 13 x x x x
	
E5II
x x 2 4 x x

Gtr I (Eb Ab Db Gb Bb Eb) - 'Untitled'
Gtr II (Eb Ab Db Gb Bb Eb) - 'Untitled'
Gtr III (Eb Ab Db Gb Bb Eb) - 'Untitled'
Gtr IV (Eb Ab Db Gb Bb Eb) - 'Untitled'

 Intro
  Q=120
 4/4
  Gtr I
     PM----|    PM|            PM----|
                    |-3-|
  Q  S S S S Q  S S S S S   Q  S S S S Q  Q
|-------------------------|------------------|
|-------------------------|------------------|
|-------------------------|------------------|
|-9----------8------------|-7----------------|
|-7----------6------6h9p6-|-5----------5--5--|
|----0-0-0-0----0-0-------|----0-0-0-0-6--5--|


     PM----|    PM|            PM----|
                    |-3-|
  Q  S S S S Q  S S S S S   Q  S S S S Q  Q
|-------------------------|------------------||
|-------------------------|------------------||
|-------------------------|------------------||
|-9----------8------------|-7----------------||
|-7----------6------6h9p6-|-5----------5--5--||
|----0-0-0-0----0-0-------|----0-0-0-0-6--4--||


  Gtrs I, II
     PM----|    PM|            PM----|
                    |-3-|
  Q  S S S S Q  S S S S S   Q  S S S S Q  Q
|-------------------------|------------------|
|-------------------------|------------------|
|-------------------------|------------------|
|-9----------8------------|-7----------------|
|-7----------6------6h9p6-|-5----------5--5--|
|----0-0-0-0----0-0-------|----0-0-0-0-6--5--|


     PM----|    PM|            PM----|
                    |-3-|
  Q  S S S S Q  S S S S S   Q  S S S S Q  Q
|-------------------------|-------------------|
|-------------------------|-------------------|
|-------------------------|-------------------|
|-9----------8------------|-7-----------------|
|-7----------6------6h9p6-|-5----------5--5---|
|----0-0-0-0----0-0-------|----0-0-0-0-6--4---|


    Gtrs I, II
       PM----|    PM|            PM----|
                      |-3-|
    Q  S S S S Q  S S S S S   Q  S S S S Q  Q
||--------------------------|------------------|
||o-------------------------|------------------|
||--------------------------|------------------|
||--9----------8------------|-7----------------|
||o-7----------6------6h9p6-|-5----------5--5--|
||-----0-0-0-0----0-0-------|----0-0-0-0-6--5--|


     PM----|    PM|            PM----|
                    |-3-|
  Q  S S S S Q  S S S S S   Q  S S S S Q  Q
|-------------------------|-------------------||
|-------------------------|------------------o||
|-------------------------|-------------------||
|-9----------8------------|-7-----------------||
|-7----------6------6h9p6-|-5----------5--5--o||
|----0-0-0-0----0-0-------|----0-0-0-0-6--4---||


  S S S S S S S S S S S S S S S S   S S S S S S S S S S S S S S S S
|---------------------------------|---------------------------------|
|---------------------------------|---------------------------------|
|---------------------------------|---------------------------------|
|---------------------------------|---------------------------------|
|-7-------7-------7-------7-------|-8-------8-------8-------8-------|
|---6-5-0---6-5-0---6-5-0---6-5-0-|---6-5-0---6-5-0---6-5-0---6-5-0-|


  S S S S S S S S S S S S S S S S   S S S S S S S S S S S S S S S S
|---------------------------------|---------------------------------||
|---------------------------------|---------------------------------||
|---------------------------------|---------------------------------||
|---------------------------------|---------------------------------||
|-7-------7-------7-------7-------|-8-------8-------8-------8-------||
|---6-5-0---6-5-0---6-5-0---6-5-0-|---6-5-0---6-5-0---6-5-0---6-5-0-||


 Verse I
  S S S S S S S S S S S S S S S S   S S S S S S S S S S S S S S S S
|---------------------------------|---------------------------------|
|---------------------------------|---------------------------------|
|---------------------------------|---------------------------------|
|---------------------------------|---------------------------------|
|-7-------7-------7-------7-------|-8-------8-------8-------8-------|
|---6-5-0---6-5-0---6-5-0---6-5-0-|---6-5-0---6-5-0---6-5-0---6-5-0-|


  S S S S S S S S S S S S S S S S   S S S S S S S S S S S S S S S S
|---------------------------------|---------------------------------|
|---------------------------------|---------------------------------|
|---------------------------------|---------------------------------|
|---------------------------------|---------------------------------|
|-7-------7-------7-------7-------|-8-------8-------8-------8-------|
|---6-5-0---6-5-0---6-5-0---6-5-0-|---6-5-0---6-5-0---6-5-0---6-5-0-|


  S S S S S S S S S S S S S S S S   S S S S S S S S S S S S S S S S
|---------------------------------|---------------------------------|
|---------------------------------|---------------------------------|
|---------------------------------|---------------------------------|
|---------------------------------|---------------------------------|
|-7-------7-------7-------7-------|-8-------8-------8-------8-------|
|---6-5-0---6-5-0---6-5-0---6-5-0-|---6-5-0---6-5-0---6-5-0---6-5-0-|


  S S S S S S S S S S S S S S S S   S S S S S S S S S S S S S S S S
|---------------------------------|---------------------------------||
|---------------------------------|---------------------------------||
|---------------------------------|---------------------------------||
|---------------------------------|---------------------------------||
|-7-------7-------7-------7-------|-8-------8-------8-------8-------||
|---6-5-0---6-5-0---6-5-0---6-5-0-|---6-5-0---6-5-0---6-5-0---6-5-0-||


 Guitar Solo
  A5              Bb5      Db5   C5          Db5
  Gtrs I, II
                            |-3--|
   H.              Q        E    Q +H        Q
   |               |        |    |  |        |
   /               /        /    /  /        /

  Gtr III
   TP     TP       TP       TP
   Q      H        Q        Q.        E  Q   Q
|-15b17--15b17----15b17--|-15b17-----------------|
|-15b17--15b17----15b17--|-15b17-----------------|
|------------------------|-----------------------|
|------------------------|-----------------------|
|------------------------|------------x\-x\--x\--|
|------------------------|------------x\-x\--x\--|


  A5               Bb5       E5      Eb5
                               |--3--|
   H.               Q          E     Q  +H.
   |                |          |     |   |
   /                /          /     /   /

                               /0.5\     /1\
   TP     TP        TP                          ~~~~~
   Q      H         Q         +Q        +Q     +H
|--------------------------|---------------------------|
|--------------------------|---------------------------|
|-12b14--12b14=====12b15===|=(12)------(12)---(12)r----|
|--------------------------|---------------------------|
|--------------------------|---------------------------|
|--------------------------|---------------------------|


  A5                  Bb5  Db5  C5      Db5
                           |-3--|
    H.                Q    E    Q +H    Q
    |                 |    |    |  |    |
    /                 /    /    /  /    /

                           \1.5
    Q        H.            W
|------------------------|-----------------|
|------------------------|-----------------|
|-[12]b14--[12]b14-------|-0---------------|
|------------------------|-----------------|
|------------------------|-----------------|
|------------------------|-----------------|


  A5                  Bb5  E5   Eb5     E5
                          2/4          5/8
                             |3-|
    H.                Q      E  Q +Q      Q   Q   +E
    |                 |      |  |  |      |   |    |
    /                 /      /  /  /      /   /    /

    /0.5\      /0.5\
                             ~~~~~~~~~~~~~~~~
    H          H            +H           +H       +E
|------------------------|------------|----------------||
|------------/14---------|-(14)-------|-(14)-----(14)--||
|------------/14---------|-(14)-------|-(14)-----(14)--||
|------------------------|------------|----------------||
|-/12--------------------|------------|----------------||
|------------------------|------------|----------------||


 Verse II
 4/4
  Gtrs I, II
  S S S S S S S S S S S S S S S S   S S S S S S S S S S S S S S S S
|---------------------------------|----------------------------------|
|---------------------------------|----------------------------------|
|---------------------------------|----------------------------------|
|---------------------------------|----------------------------------|
|-7-------7-------7-------7-------|-8-------8-------8-------8--------|
|---6-5-0---6-5-0---6-5-0---6-5-0-|---6-5-0---6-5-0---6-5-0---6-5-0--|


  S S S S S S S S S S S S S S S S   S S S S S S S S S S S S S S S S
|---------------------------------|---------------------------------|
|---------------------------------|---------------------------------|
|---------------------------------|---------------------------------|
|---------------------------------|---------------------------------|
|-7-------7-------7-------7-------|-8-------8-------8-------8-------|
|---6-5-0---6-5-0---6-5-0---6-5-0-|---6-5-0---6-5-0---6-5-0---6-5-0-|


  S S S S S S S S S S S S S S S S   S S S S S S S S S S S S S S S S
|---------------------------------|---------------------------------|
|---------------------------------|---------------------------------|
|---------------------------------|---------------------------------|
|---------------------------------|---------------------------------|
|-7-------7-------7-------7-------|-8-------8-------8-------8-------|
|---6-5-0---6-5-0---6-5-0---6-5-0-|---6-5-0---6-5-0---6-5-0---6-5-0-|


                                   2/4
  S S S S S S S S S S S S S S S S   S E. Q
|---------------------------------|---------||
|---------------------------------|---------||
|---------------------------------|---------||
|---------------------------------|---------||
|-7-------7-------7-------7-------|-8-------||
|---6-5-0---6-5-0---6-5-0---6-5-0-|---------||


 Guitar Solo II
 4/4
  Gtr IV
   ~~~~~~~~~~~~~~~~~~~~~~~~
   Q            Q        Q        E     E
|-15-----------15-------15-------15----------|
|-15b17========15-------15-------15r---17\---|
|--------------------------------------------|
|--------------------------------------------|
|--------------------------------------------|
|--------------------------------------------|
|
| Gtrs I, II
|  S     S S S  S S S S  S S S S  S  S  S  S
|--------------------------------------------|
|--------------------------------------------|
|--------------------------------------------|
|--------------------------------------------|
|--------------------------------------------|
|--0-----0-0-0--6-3-0-0--0-0-0-0--6--3--0--0-|


   |---3---|
   S  S    S  S  T  S    +T   T  T  T  T  T  T      +Q         +Q
|-------------------------------15h17-17-18-18b20==(18)-------(18)r\-----|
|-17-15---15-17-17-18---(18)-18------------------------------------------|
|------------------------------------------------------------------------|
|------------------------------------------------------------------------|
|------------------------------------------------------------------------|
|------------------------------------------------------------------------|
|
|  S    S     S  S    S       S     S     S          S  S S S   E    E
|------------------------------------------------------------------------|
|------------------------------------------------------------------------|
|------------------------------------------------------------------------|
|------------------------------------------------------------------------|
|---------------------------------------------------------------3----3---|
|--0----0-----0--0----6-------3-----0-----0----------0--0-0-0---1----1---|


   |--------6---------|  |--------6---------|  |--------6---------|
   S  S    S  S  S    S  S  S    S  S  S    S  S  S    S  S  S    S  Q
|-15-15---14-12-14---12--------------------------------------------------------|
|-----------------------15-15---14-14------------------------------------------|
|-------------------------------------15---15-14-------------------------------|
|------------------------------------------------17---16-16-17---16-13\--------|
|------------------------------------------------------------------------------|
|------------------------------------------------------------------------------|
|
|  S    S     S    S     S    S     S    S     S    S     S    S     S  S S S
|------------------------------------------------------------------------------|
|------------------------------------------------------------------------------|
|------------------------------------------------------------------------------|
|------------------------------------------------------------------------------|
|------------------------------------------------------------------------------|
|--0----0-----0----0-----6----3-----0----0-----0----0-----0----0-----6--3-0-0--|


                                                      ~~~~~~
   S  S  T  T  S  T  T  T  T  T  T  T  T  S   E.     +Q
|-----------------------------------------------------------||
|-----------------------------------------------------------||
|-----------------------------------------------------------||
|-12-12-11-11-14-12-12-11-11-------------14-----------------||
|----------------------------14-14-12-12----[11]---([11])---||
|-----------------------------------------------------------||
|
|  S  S  S     S  S     S     S     S     E      E    E   E
|-----------------------------------------------------------||
|-----------------------------------------------------------||
|-----------------------------------------------------------||
|-----------------------------------------------------------||
|-----------------------------------------6------6----6---7-||
|--0--0--0-----0--6-----3-----0-----0-----4------4----4---5-||


 Verse III
  Gtrs I, II
  S S S S S S S S S S S S S S S S   S S S S S S S S S S S S E E
|---------------------------------|-----------------------------|
|---------------------------------|-----------------------------|
|---------------------------------|-----------------------------|
|---------------------------------|-----------------------------|
|---------------------------------|-------------------------3-3-|
|-0-0-0-0-6-3-0-0-0-0-0-0-6-3-0-0-|-0-0-0-0-6-3-0-0-0-0-0-0-1-1-|


  S S S S S S S S S S S S S S S S   S S S S S S S S E E E E
|---------------------------------|-------------------------|
|---------------------------------|-------------------------|
|---------------------------------|-------------------------|
|---------------------------------|-------------------------|
|---------------------------------|-----------------6-6-6-7-|
|-0-0-0-0-6-3-0-0-0-0-0-0-6-3-0-0-|-0-0-0-0-6-3-0-0-4-4-4-5-|


  S S S S S S S S S S S S S S S S   S S S S S S S S S S S S E E
|---------------------------------|-----------------------------|
|---------------------------------|-----------------------------|
|---------------------------------|-----------------------------|
|---------------------------------|-----------------------------|
|---------------------------------|-------------------------3-3-|
|-0-0-0-0-6-3-0-0-0-0-0-0-6-3-0-0-|-0-0-0-0-6-3-0-0-0-0-0-0-1-1-|


  S S S S S S S S S S S S S S S S   S S S S S S S S E E E E
|---------------------------------|-------------------------||
|---------------------------------|-------------------------||
|---------------------------------|-------------------------||
|---------------------------------|-------------------------||
|---------------------------------|-----------------6-6-6-6-||
|-0-0-0-0-6-3-0-0-0-0-0-0-6-3-0-0-|-0-0-0-0-6-3-0-3-4-4-4-4-||


 Verse IV
  H.      Q     S  E.  +H      Q     H.      Q     S  E.  +H.
|------------|---------------------|------------|----------------|
|------------|---------------------|------------|----------------|
|------------|---------------------|------------|----------------|
|------------|---------------------|------------|----------------|
|-7-------8--|-11s10--(10)----11\--|-7-------8--|-14s13--(13)----|
|-5-------6--|--9s=8---(8)-----9\--|-5-------6--|-12s11--(11)----|


  Gtr I
  H.       Q     S  E.  +H      Q     H.       Q     S  E.  +H.
|-------------|---------------------|-------------|----------------|
|-------------|---------------------|-------------|----------------|
|-------------|---------------------|-------------|----------------|
|-------------|---------------------|-------------|----------------|
|-7--------8--|-11s10--(10)----11\--|-7--------8--|-14s13--(13)----|
|-5--------6--|--9s=8---(8)-----9\--|-5--------6--|-12s11--(11)----|
|
| Gtr II
| H.       Q     S  E.  +H      Q     H.       Q     S  E.  +H.
|-------------|---------------------|-------------|----------------|
|-------------|---------------------|-------------|----------------|
|-9-------10--|-13s12--(12)----13\--|-9-------10--|-16s15--(15)----|
|-7--------8--|-11s10--(10)----11\--|-7--------8--|-14s13--(13)----|
|-------------|---------------------|-------------|----------------|
|-------------|---------------------|-------------|----------------|


  Gtrs I, II
     PM----|    PM|            PM----|
                    |-3-|
  Q  S S S S Q  S S S S S   Q  S S S S Q  Q
|-------------------------|------------------|
|-------------------------|------------------|
|-------------------------|------------------|
|-9----------8------------|-7----------------|
|-7----------6------6h9p6-|-5----------5--5--|
|----0-0-0-0----0-0-------|----0-0-0-0-6--5--|


     PM----|    PM|            PM----|
                    |-3-|
  Q  S S S S Q  S S S S S   Q  S S S S Q  Q
|-------------------------|-------------------||
|-------------------------|-------------------||
|-------------------------|-------------------||
|-9----------8------------|-7-----------------||
|-7----------6------6h9p6-|-5----------5--5---||
|----0-0-0-0----0-0-------|----0-0-0-0-6--4---||


 Verse V
     PM----|    PM|            PM----|
                    |-3-|
  Q  S S S S Q  S S S S S   Q  S S S S Q  Q
|-------------------------|------------------|
|-------------------------|------------------|
|-------------------------|------------------|
|-9----------8------------|-7----------------|
|-7----------6------6h9p6-|-5----------5--5--|
|----0-0-0-0----0-0-------|----0-0-0-0-6--5--|


     PM----|    PM|            PM----|
                    |-3-|
  Q  S S S S Q  S S S S S   Q  S S S S Q  Q
|-------------------------|-------------------|
|-------------------------|-------------------|
|-------------------------|-------------------|
|-9----------8------------|-7-----------------|
|-7----------6------6h9p6-|-5----------5--5---|
|----0-0-0-0----0-0-------|----0-0-0-0-6--4---|


     PM----|    PM|            PM----|
                    |-3-|
  Q  S S S S Q  S S S S S   Q  S S S S Q  Q
|-------------------------|------------------|
|-------------------------|------------------|
|-------------------------|------------------|
|-9----------8------------|-7----------------|
|-7----------6------6h9p6-|-5----------5--5--|
|----0-0-0-0----0-0-------|----0-0-0-0-6--5--|


     PM----|    PM|            PM----|
                    |-3-|
  Q  S S S S Q  S S S S S   Q  S S S S Q  Q
|-------------------------|-------------------||
|-------------------------|-------------------||
|-------------------------|-------------------||
|-9----------8------------|-7-----------------||
|-7----------6------6h9p6-|-5----------5--5---||
|----0-0-0-0----0-0-------|----0-0-0-0-6--4---||


  Q=228
  E5II
  Gtr II
  E E   Q       H                 W
  |
  /

  Gtr I
  E S S S S S S S S S S S S S S   E S S S S S S S S S S S S S S
|-------------------------------|-------------------------------|
|-------------------------------|-------------------------------|
|-------------------------------|-------------------------------|
|-2---------------------5p4p2p0-|-2---------------------5p4p2p0-|
|-------------------------------|-------------------------------|
|---0-0-0-0-0-0-0-0-0-0---------|---0-0-0-0-0-0-0-0-0-0---------|


  W                               W
  E S S S S S S S S S S S S S S   E S S S S S S S S S S S S S S
|-------------------------------|--------------------------------|
|-------------------------------|--------------------------------|
|-------------------------------|--------------------------------|
|-2---------------------5p4p2p0-|-2---------------------5p4p2p0--|
|-------------------------------|--------------------------------|
|---0-0-0-0-0-0-0-0-0-0---------|---0-0-0-0-0-0-0-0-0-0----------|


  Gtrs I, II
  E S S S S S S S S S S S S S S   E S S S S S S S S S S S S S S
|-------------------------------|-------------------------------|
|-------------------------------|-------------------------------|
|-------------------------------|-------------------------------|
|-2---------------------5p4p2p0-|-2---------------------5p4p2p0-|
|-------------------------------|-------------------------------|
|---0-0-0-0-0-0-0-0-0-0---------|---0-0-0-0-0-0-0-0-0-0---------|


  E S S S S S S S S S S S S S S   E S S S S S S S S S S S S S S
|-------------------------------|--------------------------------||
|-------------------------------|--------------------------------||
|-------------------------------|--------------------------------||
|-2---------------------5p4p2p0-|-2---------------------5p4p2p0--||
|-------------------------------|--------------------------------||
|---0-0-0-0-0-0-0-0-0-0---------|---0-0-0-0-0-0-0-0-0-0----------||


  Gtr IV
   S  S  S  S  S  S  S  S  S  S  S  S  S  S  S  S
|-24-21----21-21-18----20-20-20-20-20-20-20-17-20-|
|-------23----------20----------------------------|
|-------------------------------------------------|
|-------------------------------------------------|
|-------------------------------------------------|
|-------------------------------------------------|
|
| Gtrs I, II
|  E     S  S  S  S  E     S  S  S  S  S  S  S  S
|-------------------------------------------------|
|-------------------------------------------------|
|-------------------------------------------------|
|--2-----------------4-----------------5p=4p=2p=0-|
|-------------------------------------------------|
|--------0--0--0--0--------0--0--0--0-------------|


   |---3---|    |----3----|  |----3----|    |----3----|
   E  E    E    E    E    E  E    E    E    E    E    E
|-20-19---17----------------------------------------------|
|--------------20---19p==17-------------------------------|
|---------------------------20---19---17---16---17---16---|
|---------------------------------------------------------|
|---------------------------------------------------------|
|---------------------------------------------------------|
|
|  E    S    S  S S    E     S S    S    S  S S    S    S
|---------------------------------------------------------|
|---------------------------------------------------------|
|---------------------------------------------------------|
|--2-------------------4--------------------5p4p===2p===0-|
|---------------------------------------------------------|
|-------0----0--0-0----------0-0----0----0----------------|


   |---3---|    |----3----|  |---3----|    |---3----|
   E  E    E    E    E    E  E    E   E    E    E   E
|-------------------------------------------------------|
|-------------------------------------------------------|
|-17-16-------------------------------------------------|
|---------19---17---16---17-16---17-------17---19-------|
|-------------------------------------------------------|
|-------------------------------------------------------|
|
|  E    S    S  S S    E     S S    S   S  S S    S   S
|-------------------------------------------------------|
|-------------------------------------------------------|
|-------------------------------------------------------|
|--2-------------------6-------------------5p4p===2p==0-|
|-------------------------------------------------------|
|-------0----0--0-0----------0-0----0---0---------------|


   ~~~~~~~~~~~~~~~~
   Q          +Q       +Q        E    S  S
|------------------------------------12-12---|
|--------------------------------------------|
|--------------------------------------------|
|-19b21======(19)r====(19)s======7/----------|
|--------------------------------------------|
|--------------------------------------------|
|
|  E     S S   S  S E   S  S S S S S  S  S
|--------------------------------------------|
|--------------------------------------------|
|--------------------------------------------|
|--2----------------5------------5p4p=2p=0---|
|--------------------------------------------|
|--------0-0---0--0-----0--0-0-0-------------|


   S  E    S  S  E    S  E    S  S  +E    E
|-12-15---14-12-------------------------------|
|---------------15---14-12---12---------------|
|-------------------------------14-(14)--12---|
|---------------------------------------------|
|---------------------------------------------|
|---------------------------------------------|
|
|  E    S  S  S  S E     S S  S  S   S S  S S
|---------------------------------------------|
|---------------------------------------------|
|---------------------------------------------|
|--2---------------4-----------------5p4p=2p0-|
|---------------------------------------------|
|-------0--0--0--0-------0-0--0--0------------|


    ~~~~~~~~
    E    Q.          Q       E   S S
|--------------------------------6h9-|
|------------------------------------|
|-[14]-[14]---------14s======2-------|
|------------------------------------|
|------------------------------------|
|------------------------------------|
|
|   E    S  S S S E  S S S S S S S S
|------------------------------------|
|------------------------------------|
|------------------------------------|
|---2-------------4----------5p4p2p0-|
|------------------------------------|
|--------0--0-0-0----0-0-0-0---------|


   T      T        T        T      T        T       T       T
   |-----6------|  |-----6------|  |------6-------| |------6------|
   S S S  S S   S  S S   S  S S S  S S   S  S S   S S S   S S S   S
|-12p6h9-12p6h==9-11p5h==8-11p5h8-10p4h==7-10p4h==7-9p3h==6-9p3h==6p|
|-------------------------------------------------------------------|
|-------------------------------------------------------------------|
|-------------------------------------------------------------------|
|-------------------------------------------------------------------|
|-------------------------------------------------------------------|
|
|  E      S   S    S   S    E      S   S    S   S   S   S   S   S
|-------------------------------------------------------------------|
|-------------------------------------------------------------------|
|-------------------------------------------------------------------|
|--2------------------------6-----------------------5p==4p==2p==0---|
|-------------------------------------------------------------------|
|---------0---0----0---0-----------0---0----0---0-------------------|


  E E   +Q       H
|-5p4---(4)/------------------------||
|----------------x\-----------------||
|----------------x\-----------------||
|-----------------------------------||
|-----------------------------------||
|-----------------------------------||
|
| E S S  S   S E S  S S S S S S S
|-----------------------------------||
|-----------------------------------||
|-----------------------------------||
|-2------------5----------5p4p2p0---||
|-----------------------------------||
|---0-0--0---0---0--0-0-0-----------||


 Verse VI
  Gtrs I, II
  E S S S S S S S S S S S S S S   E S S S S S S S S S S S S S S
|-------------------------------|-------------------------------|
|-------------------------------|-------------------------------|
|-------------------------------|-------------------------------|
|-2---------------------5p4p2p0-|-2---------------------5p4p2p0-|
|-------------------------------|-------------------------------|
|---0-0-0-0-0-0-0-0-0-0---------|---0-0-0-0-0-0-0-0-0-0---------|


  E S S S S S S S S S S S S S S   E S S S S S S S S S S S S S S
|-------------------------------|--------------------------------||
|-------------------------------|--------------------------------||
|-------------------------------|--------------------------------||
|-2---------------------5p4p2p0-|-2---------------------5p4p2p0--||
|-------------------------------|--------------------------------||
|---0-0-0-0-0-0-0-0-0-0---------|---0-0-0-0-0-0-0-0-0-0----------||


  Gtr IV
   |----3----|               |----3----|    |----3-----|
   E    E    E    E    S  S  E    E    E    E    S  S  E
|----------------------------------------------------------|
|----------------------------------------------------------|
|----------------------------------------------------------|
|----------------------------------------------------------|
|---------------------------16---18---16---18---18-18-16---|
|-14---16---16s==18s==16s18--------------------------------|
|
| Gtrs I, II
|  S S    S    S  S S  S  S  S S    S    S  S S     S    S
|----------------------------------------------------------|
|----------------------------------------------------------|
|----------------------------------------------------------|
|----------------------------------------------------------|
|----------------------------------------------------------|
|--2-2----2----2--2-2--2--2--2-2----2----2--2-2-----2----2-|


                         |----3-----|    |---3---|
   E    S S  E    S  S  +E     E    E    S  S    S  S  S
|---------------------------------------------------------|
|---------------------------------------------------------|
|--------------------------------------------------18-----|
|-----------18---20-18-(18)---19---20---18h19h==20----18--|
|-18---19-x-----------------------------------------------|
|---------------------------------------------------------|
|
|  S S  S S  S S  S  S   S  S    S    S  S    S     S  S
|---------------------------------------------------------|
|---------------------------------------------------------|
|---------------------------------------------------------|
|---------------------------------------------------------|
|---------------------------------------------------------|
|--2-2--2-2--2-2--2--2---2--2----2----2--2----2-----2--2--|


                 \3.5
                                                ~~~~
   Q            +H.                             W
|-------------------------------------------|---------------------------||
|-------------------------------------------|---------------------------||
|-------------------------------------------|---------------------------||
|-19b21========(19)r------------------------|-[19]----------------------||
|-------------------------------------------|---------------------------||
|-------------------------------------------|---------------------------||
|
|  S     S S S   S    S S S S S S S S S S S     S  S S S S S S S Q  Q
|-------------------------------------------|---------------------------||
|-------------------------------------------|---------------------------||
|-------------------------------------------|---------------------------||
|-------------------------------------------|---------------------------||
|-------------------------------------------|---------------------------||
|--2-----2-2-2---2----2-2-2-2-2-2-2-2-2-2-2-|---2--2-2-2-2-2-2-2-2--3\--||


 Verse VII
  Gtrs I, II
  E S S S S S S S S S S S S S S   E S S S S S S S S S S S S S S
|-------------------------------|-------------------------------|
|-------------------------------|-------------------------------|
|-------------------------------|-------------------------------|
|-2---------------------5p4p2p0-|-2---------------------5p4p2p0-|
|-------------------------------|-------------------------------|
|---0-0-0-0-0-0-0-0-0-0---------|---0-0-0-0-0-0-0-0-0-0---------|


  E S S S S S S S S S S S S S S   E S S S S S S S S S S S S S S
|-------------------------------|--------------------------------||
|-------------------------------|--------------------------------||
|-------------------------------|--------------------------------||
|-2---------------------5p4p2p0-|-2---------------------5p4p2p0--||
|-------------------------------|--------------------------------||
|---0-0-0-0-0-0-0-0-0-0---------|---0-0-0-0-0-0-0-0-0-0----------||


  Gtr IV
                                ~~~~~~~~~~~~~~
   H                   E       +Q.
|-16b17---------------16b18r==(16)-----------|
|--------------------------------------------|
|--------------------------------------------|
|--------------------------------------------|
|--------------------------------------------|
|--------------------------------------------|
|
| Gtrs I, II
|  S    S S S S S S S  S    S   S  S S S S S
|--------------------------------------------|
|--------------------------------------------|
|--------------------------------------------|
|--------------------------------------------|
|--------------------------------------------|
|--4----4-4-4-4-4-4-4--4----4---4--4-4-4-4-4-|


 ~~~~~~~~
   H                    Q          S  S  S  S
|-16b17================16r\-------------14-14-|
|---------------------------------16-16-------|
|---------------------------------------------|
|---------------------------------------------|
|---------------------------------------------|
|---------------------------------------------|
|
|  S     S S S S S S S  S   S S S  S  S  S  S
|---------------------------------------------|
|---------------------------------------------|
|---------------------------------------------|
|---------------------------------------------|
|---------------------------------------------|
|--4-----4-4-4-4-4-4-4--4---4-4-4--4--4--4--4-|


                                         |----3----|
   S  S  S  S  +S   E    S  +E     S  S  E    E    E
|-17-17-16-16-(16)-14-------------------14--------20---|
|-----------------------17-(17)---16h17------16--------|
|------------------------------------------------------|
|------------------------------------------------------|
|------------------------------------------------------|
|------------------------------------------------------|
|
|  S  S  S  S   S   S S  S   S  S  S  S  S S    S    S
|------------------------------------------------------|
|------------------------------------------------------|
|------------------------------------------------------|
|------------------------------------------------------|
|------------------------------------------------------|
|--4--4--4--4---4---4-4--4---4--4--4--4--4-4----4----4-|


   H                    H
|-20b22================20r\-----------||
|-------------------------------------||
|-------------------------------------||
|-------------------------------------||
|-------------------------------------||
|-------------------------------------||
|
|  S     S S S S S S S  S   S S S Q
|-------------------------------------||
|-------------------------------------||
|-------------------------------------||
|-------------------------------------||
|-------------------------------------||
|--4-----4-4-4-4-4-4-4--4---4-4-4-4\--||


 Verse VIII
  Gtrs I, II
  E S S S S S S S S S S S S S S   E S S S S S S S S S S S S S S
|-------------------------------|-------------------------------|
|-------------------------------|-------------------------------|
|-------------------------------|-------------------------------|
|-2---------------------5p4p2p0-|-2---------------------5p4p2p0-|
|-------------------------------|-------------------------------|
|---0-0-0-0-0-0-0-0-0-0---------|---0-0-0-0-0-0-0-0-0-0---------|


  E S S S S S S S S S S S S S S   E S S S S S S S S S S S S S S
|-------------------------------|--------------------------------|
|-------------------------------|--------------------------------|
|-------------------------------|--------------------------------|
|-2---------------------5p4p2p0-|-2---------------------5p4p2p0--|
|-------------------------------|--------------------------------|
|---0-0-0-0-0-0-0-0-0-0---------|---0-0-0-0-0-0-0-0-0-0----------|


  E E S S E E E S S E   E E S S E E E S S E
|---------------------|---------------------|
|---------------------|---------------------|
|---------------------|---------------------|
|---------------------|---------------------|
|---------------------|---------------------|
|-2-2-2-2-2-2-2-2-2-2-|-2-2-2-2-2-2-2-2-2-2-|


  E E S S E E E S S E   E E S S E E E Q
|---------------------|---------------------||
|---------------------|---------------------||
|---------------------|---------------------||
|---------------------|---------------------||
|---------------------|---------------------||
|-2-2-2-2-2-2-2-2-2-2-|-2-2-2-2-2-2-2-3\----||


  Gtr IV
                               |----3----|
   E  E    E    E    E    E    E    E    E
|--------------------------------------------|
|--------------------------------------------|
|--------------------------------------------|
|---------------------------------------12---|
|---------12--------12---14---14---14--------|
|-12-15--------15----------------------------|
|
| Gtrs I, II
|  E  S S  S S  S S  S S  S S  S S    S    S
|--------------------------------------------|
|--------------------------------------------|
|--------------------------------------------|
|--2---------------------------5p4p===2p===0-|
|--------------------------------------------|
|-----0-0--0-0--0-0--0-0--0-0----------------|


   |---3---|    |----3----|    |----3----|
   E  E    E    E    E    E    E    E    E    S  E    S
|-------------------------------------------------------|
|-----------------------------------------------12---12-|
|------------------------12---14---14---12---14---------|
|-14-14---12---14---14----------------------------------|
|-------------------------------------------------------|
|-------------------------------------------------------|
|
|  E    S    S  S S    S    S  S S    S    S  S  S S  S
|-------------------------------------------------------|
|-------------------------------------------------------|
|-------------------------------------------------------|
|--2------------------------------------------5p=4p2p=0-|
|-------------------------------------------------------|
|-------0----0--0-0----0----0--0-0----0----0------------|


   E  E    S  S  S  S  H
|---------12-14-12-14-14b15---------------|
|-12-14---------------14b15---------------|
|-----------------------------------------|
|-----------------------------------------|
|-----------------------------------------|
|-----------------------------------------|
|
|  E  S S  S  S  S  S  S    S S S S S S S
|-----------------------------------------|
|-----------------------------------------|
|-----------------------------------------|
|--2------------------------------5p4p2p0-|
|-----------------------------------------|
|-----0-0--0--0--0--0--0----0-0-0---------|


               ~~~~
   Q          +H                 +Q
|-15b17======(15)---------------(15)r\-------||
|--------------------------------------------||
|--------------------------------------------||
|--------------------------------------------||
|--------------------------------------------||
|--------------------------------------------||
|
|  E     S S   S  S S S S S S S   S    S S S
|--------------------------------------------||
|--------------------------------------------||
|--------------------------------------------||
|--2------------------------------5p===4p2p0-||
|--------------------------------------------||
|--------0-0---0--0-0-0-0-0-0-0--------------||


 Verse IX
  Gtrs I, II
  S S S S S S S S S S S S S S S S   S S S S S S S S S S S S S S S S
|---------------------------------|---------------------------------|
|---------------------------------|---------------------------------|
|---------------------------------|---------------------------------|
|---------------------------------|---------------------------------|
|---------------------------------|---------------------------------|
|-3-3-3-3-3-3-3-3-3-3-3-3-3-3-3-3-|-3-3-3-3-3-3-3-3-3-3-3-3-3-3-3-3-|


  S S S S S S S S S S S S S S S S   S S S S S S S S S S S S S S S S
|---------------------------------|------------------------------------||
|---------------------------------|------------------------------------||
|---------------------------------|------------------------------------||
|---------------------------------|------------------------------------||
|---------------------------------|------------------------------------||
|-3-3-3-3-3-3-3-3-3-3-3-3-3-3-3-3-|-3-3-3-3-3-3-3-3-3-3-3-3-3-3-3-3----||


  Gtr IV
                                   ~~~~~~~~
   W                              +H.                       +Q
|-22---------------------------|-(22)b24r==================(22)------|
|------------------------------|-------------------------------------|
|------------------------------|-------------------------------------|
|------------------------------|-------------------------------------|
|------------------------------|-------------------------------------|
|------------------------------|-------------------------------------|
|
| Gtrs I, II
|  E S S S S E S S S S S S S S     E     S S S S E S S S S   S S S S
|------------------------------|-------------------------------------|
|------------------------------|-------------------------------------|
|------------------------------|-------------------------------------|
|--2---------4---------5p4p2p0-|---2-------------4-----------5p4p2p0-|
|------------------------------|-------------------------------------|
|----0-0-0-0---0-0-0-0---------|---------0-0-0-0---0-0-0-0-----------|


   /1.5\                /1.5\         /2\           /2.5\
   Q.             +E   +Q            +Q            +H               Q         E    S  S
|-22-------------(22)-(22)----------(22)--------|-(22)----------------------------------|
|-----------------------------------------------|---------------------------------------|
|-----------------------------------------------|---------------------------------------|
|-----------------------------------------------|-------------------x\------------------|
|-----------------------------------------------|-------------------x\------------------|
|-----------------------------------------------|----------------------------10---10-12-|
|
|  E     S S S S   E    S     S S S   S   S S S     E     S S S S E S  S S S  S S  S  S
|-----------------------------------------------|---------------------------------------|
|-----------------------------------------------|---------------------------------------|
|-----------------------------------------------|---------------------------------------|
|--2---------------6------------------5p==4p2p0-|---2-------------5-----------5p4p=2p=0-|
|-----------------------------------------------|---------------------------------------|
|--------0-0-0-0--------0-----0-0-0-------------|---------0-0-0-0---0--0-0-0------------|


   S  S  S  S  S  S  S  S  S  S  S  S  E    S  S
|------------------------------------------------|
|------------------------------------------------|
|------------------------------------------------|
|------------------------------------------------|
|-------------12-14-15-12-15-12-14-15-12---14-15-|
|-10-12-14-15------------------------------------|
|
|  E     S  S  S  S  E     S  S  S  S  S S  S  S
|------------------------------------------------|
|------------------------------------------------|
|------------------------------------------------|
|--2-----------------4-----------------5p4p=2p=0-|
|------------------------------------------------|
|--------0--0--0--0--------0--0--0--0------------|


   |---3---|
   E  E    E    E    E  E    E       E    S  S
|----------------------------------------------|
|---------------------------12b13---12---------|
|-------------------12-14----------------14-12-|
|-12-14---12---14------------------------------|
|----------------------------------------------|
|----------------------------------------------|
|
|  E    S    S  S S  E  S S  S    S  S S  S  S
|----------------------------------------------|
|----------------------------------------------|
|----------------------------------------------|
|--2-----------------4---------------5p4p=2p=0-|
|----------------------------------------------|
|-------0----0--0-0-----0-0--0----0------------|


                                                                      ~~~~
   |---3---|               |----3----|
   E  E    E    E    S  S  E    E    E    E    E      +H             +H
|--------------------------------------------------|-----------------------------------|
|-12-13---14---15---13-12-13---12-------------12---|-(12)-----------(12)---------------|
|-----------------------------------14---12---12---|-(12)-----------(12)---------------|
|--------------------------------------------------|-----------------------------------|
|--------------------------------------------------|-----------------------------------|
|--------------------------------------------------|-----------------------------------|
|
|  E    S    S  S S  E     S S    S    S  S S  S S     E  S S S S E   S  S S S S S S S
|--------------------------------------------------|-----------------------------------|
|--------------------------------------------------|-----------------------------------|
|--------------------------------------------------|-----------------------------------|
|--2-----------------6--------------------5p4p=2p0-|---2----------5------------5p4p2p0-|
|--------------------------------------------------|-----------------------------------|
|-------0----0--0-0--------0-0----0----0-----------|------0-0-0-0-----0--0-0-0---------|


                   \1.5                  /1\                /1.5\
  H               +H                     H                  H
|-------------------------------------|--------------------------------------------||
|-0---------------(0)-----------------|--------------------------------------------||
|-0---------------(0)-----------------|-<5>----------------<5>---------------------||
|-------------------------------------|-<5>----------------<5>---------------------||
|-------------------------------------|--------------------------------------------||
|-------------------------------------|--------------------------------------------||
|
| S S S S S S S S  S    S S S S S S S    S   S S S S S S S  S     S S S S S S S
|-------------------------------------|--------------------------------------------||
|-------------------------------------|--------------------------------------------||
|-------------------------------------|--------------------------------------------||
|-------------------------------------|--------------------------------------------||
|-------------------------------------|--------------------------------------------||
|-2-2-2-2-2-2-2-2--2----2-2-2-2-2-2-2-|--2---2-2-2-2-2-2-2--2-----2-2-2-2-2-2-2----||


 Outro
  Gtrs I, II
  Q  Q  Q  Q    W          E S S S S E S S S S S S S S
|-------------|----------|-----------------------------|
|-------------|----------|-----------------------------|
|-------------|----------|-----------------------------|
|-------------|----------|-2---------4---------5p4p2p0-|
|-3--3--3-----|----------|-----------------------------|
|-1--1--1-----|----------|---0-0-0-0---0-0-0-0---------|


  E S S S S E S S S S S S S S
|-----------------------------|
|-----------------------------|
|-----------------------------|
|-2---------4---------5p4p2p0-|
|-----------------------------|
|---0-0-0-0---0-0-0-0---------|


  E S S S S E S S S S S S S S   E S S S S E S S S S S S S S   E E Q  H
|-----------------------------|-----------------------------|-------------*|
|-----------------------------|-----------------------------|-------------*|
|-----------------------------|-----------------------------|-------------*|
|-2---------4---------5p4p2p0-|-2---------4---------5p4p2p0-|-2-----------*|
|-----------------------------|-----------------------------|-2-----------*|
|---0-0-0-0---0-0-0-0---------|---0-0-0-0---0-0-0-0---------|-0-----------*|



Duration Legend
---------------
W - whole; H - half; Q - quarter; E - 8th; S - 16th; T - 32nd; X - 64th; a - acciaccatura
+ - note tied to previous; . - note dotted; .. - note double dotted
Uncapitalized letters represent notes that are staccato (1/2 duration)
Irregular groupings are notated above the duration line
Duration letters will always appear directly above the note/fret number it represents the
duration for.  Duration letters with no fret number below them represent rests.  Multi-
bar rests are notated in the form Wxn, where n is the number of bars to rest for.  Low
melody durations appear below the staff

Tablature Legend
----------------
 h   - hammer-on
 p   - pull-off
 b   - bend
 pb  - pre-bend
 r   - bend release (if no number after the r, then release immediately)
 /\  - slide into or out of (from/to "nowhere")
 s   - legato slide
 S   - shift slide
 - natural harmonic
[n]  - artificial harmonic
n(n) - tapped harmonic
 ~   - vibrato
 tr  - trill
 T   - tap
 TP  - trem. picking
 PM  - palm muting
\n/  - tremolo bar dip; n = amount to dip
 \n  - tremolo bar down
 n/  - tremolo bar up
/n\  - tremolo bar inverted dip
 =   - hold bend; also acts as connecting device for hammers/pulls
 <> - volume swell (louder/softer)
 x   - on rhythm slash represents muted slash
 o   - on rhythm slash represents single note slash

Misc Legend
-----------
 |  - bar
||  - double bar
||o - repeat start
o|| - repeat end
*|  - double bar (ending)
 :  - bar (freetime)
 $  - Segno
 &  - Coda
Tempo markers -  = BPM(8/16=s8/s16), where s8 = swing 8ths, s16 = swing 16ths


            
            
Suggest correction
Creating personal tab
Creating personal tab
You can edit any tab online and save it as your Personal.

You can edit, replace or remove any tab part or add personal notes – all changes will be seen only by you.

Personal tabs can be accessed anytime from any device, even offline.
Learn more »
Give kudos to tab author, rate the tab!
1 2 3 4 5
comments
print report bad tab
2 comments total.
0 reply
ShredHead396 200 Jun 18, 2009 01:49 AM

Wow no comments? proffesional tab right here !

0 reply
g3731611 10 Nov 14, 2015 03:08 AM

totaly agree!

guest
You may want to rate the tab now too:
select rating
Wanna post a correction for this tab? Suggest correction