Oops, an error
Loading. Please wait.

New Faith tab

version 3
version 3

Whole song

Interactive

by Slayer
1,652 views 3 this week
1 commentread comment
1 2 3 4 5
2 more votes to show rating
add to favorites
×
Save as Personal and add changes to this tab that will be seen only by you. Learn more ›
×
You can save this tab as Personal to edit and correct it or add notes. All changes will be seen only by you. Learn more »
launch autoscroll
font size
0
reset
how to read this tab
guitar tuner
edit
Autoscroll
slow
fast
+/-
esc
set tempo
stop
Author
Difficulty
----------------------------------------------------------------------------
                            New Faith- Slayer
----------------------------------------------------------------------------
Tabbed By: Brack
 Tuning Db


 RIFF 1 INTRO x1

|KING
|---------------------------------|
|---------------------------------|
|---------------------------------|
|---------------------------------|
|-----------------3-----6-----5---|
|-0-0-0-0-0-0-0-0-1---0-4---0-3---|
  . . . . . . . .     .     .


|KING
|---------------------------------|
|---------------------------------|
|---------------------------------|
|---------------------------------|
|-----------------3-----6-----5---|
|-0-0-0-0-0-0-0-0-1---0-4---0-3---|
| . . . . . . . .     .     .
|
|HANNEMAN
|---------------------------------|
|---------------------------------|
|---------------------------------|
|---------------------------------|
|---------------------------------|
|----------------------------15\\-|



 RIFF 1A VERSE x6

|---------------------------------|
|---------------------------------|
|---------------------------------|
|---------------------------------|
|-----------------3-----6-----5---|
|-0-0-0-0-0-0-0-0-1---0-4---0-3---|
  . . . . . . . .     .     .



 RIFF 2 BRIDGE x2

|-----------------------------------------------------|
|-----------------------------------------------------|
|-----------------------------------------------------|
|-----------------------------------------------------|
|-----------------------------------------------------|
|-2-4-5-2-4-5-2-4-5-2-4-5-2-4-5-2-4-5-2-4-5-0-2-4-5-4-|
  . . . . . . . . . . . . . . . . . . . . . . . . . .



 RIFF 3 CHORUS x1

|x3
|-----------------------------------------------------------------|
|-----------------------------------------------------------------|
|-----------------------------------------------------------------|
|-----------------------------------------------------------------|
|-7-8-5---7-8-5---7-8-5---7-8-5---7-8-5---7-8-5---7-8-5---3---6---|
|-0-0-0-0-0-0-0-0-0-0-0-0-0-0-0-0-0-0-0-0-0-0-0-0-0-0-0-0-1---4---|
      . .     . .     . .     . .     . .     . .     . .


|-----------------------------------------------------------------|
|-----------------------------------------------------------------|
|-----------------------------------------------------------------|
|-----------------------------------------------------------------|
|-7-8-5---7-8-5---7-8-5---7-8-5---7-8-5---7-8-5---6-6-6-6-6-6-6-6-|
|-0-0-0-0-0-0-0-0-0-0-0-0-0-0-0-0-0-0-0-0-0-0-0-0-4-4-4-4-4-4-4-4-|
      . .     . .     . .     . .     . .     . .


|----------------|
|----------------|
|----------------|
|----------------|
|-6\\\\----------|
|-4\\\\----------|




 RIFF 1A VERSE x4

 RIFF 2 BRIDGE x1


 RIFF 3A CHORUS x1

|x3
|-----------------------------------------------------------------|
|-----------------------------------------------------------------|
|-----------------------------------------------------------------|
|-----------------------------------------------------------------|
|-7-8-5---7-8-5---7-8-5---7-8-5---7-8-5---7-8-5---7-8-5---3---6---|
|-0-0-0-0-0-0-0-0-0-0-0-0-0-0-0-0-0-0-0-0-0-0-0-0-0-0-0-0-1---4---|
      . .     . .     . .     . .     . .     . .     . .


|-----------------------------------------------------------------|
|-----------------------------------------------------------------|
|-----------------------------------------------------------------|
|-----------------------------------------------------------------|
|-2---------------------------------------------------------------|
|-0---------------------------------------------------------------|
   x



 SOLO KING
  WAH     WAHBARN.H. BAR   WAH & BAR/\/\/\/\/\/\/\/\/\/\/\/\/\/\/\/\/\/\/\
|--------------------------------------------------------------------------|
|--------------------------------------------------------------------------|
|-x\\\\---0\\\\h4/\/\/\\---7p6p0h7p6p0h7p6p0h6p4p0h6p4p0h6p4p0h4p3p0h4p3p0-|
|-x\\\\--------------------------------------------------------------------|
|--------------------------------------------------------------------------|
|--------------------------------------------------------------------------|

  WAH & BAR/\/\/\/\/\/\/\/\/\/\/\/\/\/\/\/\/\/\/\/\/\/\/\/\/\/\/\
|-----------------------------------------------------------------|
|-----------------------------------------------------------------|
|-h4p3p0h7p6p0h7p6p0h7p6p0h10p9p0h10p9p0h10p9p0h9p7p0h9p7p0h9p7p0-|
|-----------------------------------------------------------------|
|-----------------------------------------------------------------|
|-----------------------------------------------------------------|

  WAH & BAR/\/\/\/\/\/\/\/\/\/\/\/\/\/\/\/\/\/\/\/\/\/\_ BAR    WAH & BAR
|---------------------------------------------------------------------------
|---------------------------------------------------------------------------
|-h7p6p0h7p6p0h7p6p0h6p4p0h6p4p0h6p4p0h4p3p0h4p3p0h4p3p0\\\\\\--------------
|---------------------------------------------------------------0////////\\
|---------------------------------------------------------------------------
|---------------------------------------------------------------------------




 RIFF 4 x2 UNDER SOLO

|------------------------------------------------------------------|
|------------------------------------------------------------------|
|------------------------------------------------------------------|
|------------------------------------------------------------------|
|-5---------------5---------------5---------------5----------8-----|
|-3-0000-653-0000-3-0000-653-0000-3-0000-653-0000-3-0000-653-6-----|
    .... ... ....   .... ... ....   .... ... ....   .... ...



 RIFF 4A VERSE x1

|------------------------------------------------------------------|
|------------------------------------------------------------------|
|------------------------------------------------------------------|
|------------------------------------------------------------------|
|-5---------------5---------------5---------------5----------8-----|
|-3-0000-653-0000-3-0000-653-0000-3-0000-653-0000-3-0000-653-6-----|
    .... ... ....   .... ... ....   .... ... ....   .... ...


|------------------------------------------------------------|
|------------------------------------------------------------|
|------------------------------------------------------------|
|------------------------------------------------------------|
|-5---------------5---------------5---------------5----------|
|-3-0000-653-0000-3-0000-653-0000-3-0000-653-0000-3-0000-653-|
    .... ... ....   .... ... ....   .... ... ....   .... ...



 RIFF 5 CHORUS x1

|-------------------------------------------------------|
|-------------------------------------------------------|
|-------------------------------------------------------|
|-------------------------------------------------------|
|-8---7----------5---8---8---7----------8---7---8---5---|
|-6---5---555555-3---6---6---5---555555-6---5---6---3---|
          ......                 ......


|-------------------------------------------|
|-------------------------------------------|
|-------------------------------------------|
|-------------------------------------------|
|--------5---8---8---7----------6---3---6---|
|-555555-3---6---6---5---555555-4---1---4---|
  ......                 ......



 RIFF 4B BREAK x1

|------------------------------------------------------------------|
|------------------------------------------------------------------|
|------------------------------------------------------------------|
|------------------------------------------------------------------|
|-5---------------5---------------5---------------5------8---------|
|-3-0000-653-0000-3-0000-653-0000-3-0000-653-0000-3-0000-6---------|
    .... ... ....   .... ... ....   .... ... ....   ....  x



 RIFF 4A VERSE x1


 RIFF 5A CHORUS x1

|-------------------------------------------------------|
|-------------------------------------------------------|
|-------------------------------------------------------|
|-------------------------------------------------------|
|-8---7----------5---8---8---7----------8---7---8---5---|
|-6---5---555555-3---6---6---5---555555-6---5---6---3---|
          ......                 ......


|------------------------------------------------------|
|------------------------------------------------------|
|------------------------------------------------------|
|------------------------------------------------------|
|--------5---8---8---7----------6---3---6---5----------|
|-555555-3---6---6---5---555555-4---1---4---3---000000-|
  ......                 ......                 ......



 RIFF 6 CHORUS x4

|------------------------|
|------------------------|
|------------------------|
|------------------------|
|-6---3---6---5----------|
|-4---1---4---3---000000-|
                  ......



 FILL 1

|----------------------------|
|----------------------------|
|----------------------------|
|----------------------------|
|-6---3---3---2-----3333-----|
|-4---1---1---0-----1111-----|
                        x



 RIFF 7 OUTRO x1

|KING
|-------------------------------|
|-------------------------------|
|-------------------------------|
|-------------------------------|
|-2-----3-3---6-5-2-----3-3-----|
|-0-----1-1---4-3-0-----1-1-----|
|                          x
|
|HANNEMAN
|-------------------------------|
|-------------------------------|
|-------------------------------|
|---------------------------3---|
|---------------------------1---|
|-------------------------------|
                             x


|KING x4
|-------------------------------|
|-------------------------------|
|-------------------------------|
|-------------------------------|
|-2-----3-3---6-5-2-----3-3-----|
|-0-----1-1---4-3-0-----1-1-----|
|                          x
|
|HANNEMAN x4
|-------------------------------|
|-------------------------------|
|-------------------------------|
|---------------------------3---|
|-2-----3-3---6-5-2-----3-3-1---|
|-0-----1-1---4-3-0-----1-1-----|
                             x


|KING
|-------------------------------|
|-------------------------------|
|-------------------------------|
|-------------------------------|
|-2-----3-3---6-5-2-----2-3-----|
|-0-----1-1---4-3-0-----0-1-----|
|                          x
|
|HANNEMAN
|-------------------------------|
|-------------------------------|
|-------------------------------|
|-------------------------------|
|-2-----3-3---6-5-2-----2-3-----|
|-0-----1-1---4-3-0-----0-1-----|
                           x

            
            
Suggest correction
Creating personal tab
Creating personal tab
You can edit any tab online and save it as your Personal.

You can edit, replace or remove any tab part or add personal notes – all changes will be seen only by you.

Personal tabs can be accessed anytime from any device, even offline.
Learn more »
Give kudos to tab author, rate the tab!
1 2 3 4 5
comments
print report bad tab
1 comment total.
-1 reply
Nunfunter 10 Jul 26, 2008 07:52 PM

Not bad. But i though it was just in D?

guest
You may want to rate the tab now too:
select rating
Wanna post a correction for this tab? Suggest correction