Oops, an error
Loading. Please wait.

Reign In Blood album bass

version 1
version 1

Album

Interactive

by Slayer
15,060 views 9 this week
1 commentread comment
1 2 3 4 5
x 4
add to favorites
×
Save as Personal and add changes to this tab that will be seen only by you. Learn more ›
×
You can save this tab as Personal to edit and correct it or add notes. All changes will be seen only by you. Learn more »
launch autoscroll
font size
0
reset
guitar tuner
edit
Autoscroll
slow
fast
+/-
esc
set tempo
stop
Author
1: Angel of Death
2: Piece by Piece
3: Necrophobic
4: Altar of Sacrifice
5:Jesus Saves
6: Criminally Insane
7: Reborn
8: Epidemic
9: Postmortem
10: Raining Blood
11: Aggressive Perfector

01: ANGEL OF DEATH

Tune down 1/2 step (Eb,Ab,Db,Gb)

 210 bpm
|-----------------|-----------------|-----------------|-----------------|
|-----------------|-----------------|-----------------|-----------------|
|-----------------|-----------------|-----------------|-----------------|
|-0---------------|-----------------|-----------------|-----------------|

|-----------------|-----------------|-----------------|-----------------|
|-----------------|-----------------|-----------------|-----------------|
|-----------------|-----------------|-----------------|-----------------|
|-0-------------1-|-1-------------2-|-2---------------|-1-0-1-5-----4---|

|-----------------|-----------------|-----------------|-----------------|
|-----------------|-----------------|-----------------|-----------------|
|-----------------|-----------------|-----------------|-----------------|
|-0-------------1-|-1-------------2-|-2---------------|-1-0-1-5-----4---|

|-----------------|-----------------|-----------------|-----------------||
|-----------------|-----------------|-----------------|-----------------||
|-----------------|-----------------|-----------------|-----------------||
|-0-------------1-|-1-------------2-|-2---------------|-1-0-1-5-----4---||

|-----------------|-----------------|-----------------|-----------------|
|-----------------|-----------------|-----------------|-----------------|
|-----------------|-----------------|-----------------|-----------------|
|-0-00000000000-1-|-1-00000000000-2-|-2-00000000000000|-1-0-1-5-----4---|

|-----------------|-----------------|-----------------|-----------------|
|-----------------|-----------------|-----------------|-----------------|
|-----------------|-----------------|-----------------|-----------------|
|-0-00000000000-1-|-1-00000000000-2-|-2-00000000000000|-1-0-1-5-----4---|

|-----------------||
|-----------------||
|-----------------||
|-1---------------||

|-----------------|-----------------|-----------------|-----------------|
|-----------------|-----------------|-----------------|-----------------|
|---------1-------|-----------------|---------1-------|-----------------|
|-0-00000---00000-|-0-00000-1-4-1---|-0-00000---00000-|-0-00000-1---4---|

|-----------------|-----------------|-----------------|-----------------||
|-----------------|-----------------|-----------------|-----------------||
|---------1-------|-----------------|---------1-------|-----------------||
|-0-00000---00000-|-0-00000-1-4-1---|-0-00000---00000-|-0-00000-5---6---||

 verse 1
|-----------------|-----------------|-----------------|-----------------|
|-----------------|-----------------|-----------------|-----------------|
|---------1-------|-----------------|---------1-------|-----------------|
|-0-00000---00000-|-0-00000-1-4-1---|-0-00000---00000-|-0-00000-1---4---|

|-----------------|-----------------|-----------------|-----------------||
|-----------------|-----------------|-----------------|-----------------||
|---------1-------|-----------------|---------1-------|-----------------||
|-0-00000---00000-|-0-00000-1-4-1---|-0-00000---00000-|-0-00000-5---6---||

|-----------------|-----------------|-----------------|-----------------|
|-----------------|-----------------|-----------------|-----------------|
|-----------------|-----------------|-----------------|-----------------|
|-1-1111112-111111|-3-1111114-1-2---|-1-1111112-111111|-3-1111114-1-2---|

|-----------------|-----------------|-----------------|-----------------||
|-----------------|-----------------|-----------------|-----------------||
|-----------------|-----------------|-----------------|-----------------||
|-1-1111112-111111|-3-1111114-1-2---|-1-1111112-111111|-3-1111114-1-2---||

 chorus
|-----------------|-----------------|-----------------|-----------------|
|-----------------|-----------------|-----------------|-----------------|
|-----------------|-----------------|-----------------|-----------------|
|-0-00000000000-1-|-1-00000000000-2-|-2-00000000000000|-1-0-1-5-----4---|

|-----------------|-----------------|-----------------|-----------------||
|-----------------|-----------------|-----------------|-----------------||
|-----------------|-----------------|-----------------|-----------------||
|-0-00000000000-1-|-1-00000000000-2-|-2-00000000000000|-1-0-1-5-----4---||

 verse 2
|-----------------|-----------------|-----------------|-----------------|
|-----------------|-----------------|-----------------|-----------------|
|---------1-------|-----------------|---------1-------|-----------------|
|-0-00000---00000-|-0-00000-1-4-1---|-0-00000---00000-|-0-00000-1---4---|

|-----------------|-----------------|-----------------|-----------------||
|-----------------|-----------------|-----------------|-----------------||
|---------1-------|-----------------|---------1-------|-----------------||
|-0-00000---00000-|-0-00000-1-4-1---|-0-00000---00000-|-0-00000-5---6---||

 chorus
|-----------------|-----------------|-----------------|-----------------|
|-----------------|-----------------|-----------------|-----------------|
|-----------------|-----------------|-----------------|-----------------|
|-0-00000000000-1-|-1-00000000000-2-|-2-00000000000000|-1-0-1-5-----4---|

|-----------------|-----------------|-----------------|-----------------|
|-----------------|-----------------|-----------------|-----------------|
|-----------------|-----------------|-----------------|-----------------|
|-0-00000000000-1-|-1-00000000000-2-|-2-00000000000000|-1-0-1-5-----4---|

|-----------------|-----------------|-----------------|-----------------|
|-----------------|-----------------|-----------------|-----------------|
|-----------------|-----------------|-----------------|-----------------|
|-0-00000000000-1-|-1-00000000000-2-|-2-00000000000000|-1-0-1-5-----4---|

 2/4
|---------||
|---------||
|---------||
|-1-------||

 184 bpm
 4/4
|-----------------|-----------------|-----------------|-----------------|
|-----------------|-----------------|-----------------|-----------------|
|-----------------|-----------------|-----------------|-----------------|
|-0---------------|-----------------|-----------------|-----------------|

|-----------------|-----------------|-----------------|-----------------||
|-----------------|-----------------|-----------------|-----------------||
|-----------------|-----------------|-----------------|-----------------||
|-----------------|-----------------|-----------------|-----------------||

|-----------------|-----------------|-----------------|-----------------|
|--hp-------------|--hp----hp----hp-|--hp-------------|-----------------|
|-787-------------|-676---565---454-|-787-------------|-----------------|
|-----0-0-0-0-0-0-|-----0-----0-----|-----0-0-0-0-0-0-|-0-0-0-0-0-0-0-0-|

|-----------------|-----------------|-----------------|-----------------|
|--hp-------------|--hp----hp----hp-|--hp-------------|-----------------|
|-787-------------|-676---565---454-|-787-------------|-----------------|
|-----0-0-0-0-0-0-|-----0-----0-----|-----0-0-0-0-0-0-|-0-0-0-0-0-0-0-0-|

|-----------------|-----------------|-----------------|-----------------|
|--hp-------------|--hp----hp----hp-|--hp-------------|-----------------|
|-787-------------|-676---565---454-|-787-------------|-----------------|
|-----0-0-0-0-0-0-|-----0-----0-----|-----0-0-0-0-0-0-|-0-0-0-0-0-0-0-0-|

|-----------------|-----------------||
|--hp-------------|--hp----hp----hp-||
|-787-------------|-676---565---454-||
|-----0-0-0-0-0-0-|-----0-----0-----||

 verse 3
|-----------------|-----------------|-----------------|-----------------|
|-----------------|-----------------|-----------------|-----------------|
|-----------------|-----------------|-----------------|-----------------|
|-0-0-0-1-0-0-0-0-|-0-0-1-0-0-5-6---|-0-0-0-1-0-0-0-0-|-0-0-0-0-0-0-0-0-|

|-----------------|-----------------|-----------------|-----------------|
|-----------------|-----------------|-----------------|-----------------|
|-----------------|-----------------|-----------------|-----------------|
|-0-0-0-1-0-0-0-0-|-0-0-1-0-0-5-6---|-0-0-0-1-0-0-0-0-|-0-0-0-0-0-0-0-0-|

|-----------------|-----------------|-----------------|-----------------|
|-----------------|-----------------|-----------------|-----------------|
|-----------------|-----------------|-----------------|-----------------|
|-0-0-0-1-0-0-0-0-|-0-0-1-0-0-5-6---|-0-0-0-1-0-0-0-0-|-0-0-0-0-0-0-0-0-|

|-----------------|-----------------|-----------------|-----------------|
|-----------------|-----------------|-----------------|-6-------3---4---|
|-----------------|-----------------|-----------------|---7-5-----4---5-|
|-0-0-0-1-0-0-0-0-|-0-0-1-0-0-5-6---|-0-0-0-1-0-0-0-0-|-------6---------|

|-----------------|-----------------|-----------------|-----------------|
|-----------------|-----------------|-----------------|-6-------3---4---|
|-----------------|-----------------|-----------------|---7-5-----4---5-|
|-1-1-1-1-1-1-1-1-|-4-------3-----3-|-0-0-0-1-0-0-0-0-|-------6---------|

|-----------------|-----------------||
|-----------------|-----------------||
|-----------------|-----------------||
|-1-1-1-1-1-------|-4-------3-------||

|-----------------|-----------------|-----------------|-----------------|
|-----------------|-----------------|-----------------|-----------------|
|-----------------|-----------------|-----------------|-----------------|
|-0-0-0-1-0-0-0-0-|-0-0-1-0-0-5-6---|-0-0-0-1-0-0-0-0-|-0-0-0-0-0-0-0-0-|

|-----------------|-----------------|-----------------|-----------------||
|-----------------|-----------------|-----------------|-----------------||
|-----------------|-----------------|-----------------|-----------------||
|-0-0-0-1-0-0-0-0-|-0-0-1-0-0-5-6---|-0-0-0-1-0-0-0-0-|-0-0-0-0-0-0-0-0-||

 verse 4
|-----------------|-----------------|-----------------|-----------------|
|-----------------|-----------------|-----------------|-----------------|
|-----------------|-----------------|-----------------|-----------------|
|-0-0-0-1-0-0-0-0-|-0-0-1-0-0-5-6---|-0-0-0-1-0-0-0-0-|-0-0-0-0-0-0-0-0-|

|-----------------|-----------------|-----------------|-----------------|
|-----------------|-----------------|-----------------|-----------------|
|-----------------|-----------------|-----------------|-----------------|
|-0-0-0-1-0-0-0-0-|-0-0-1-0-0-5-6---|-0-0-0-1-0-0-0-0-|-0-0-0-0-0-0-0-0-|

|-----------------|-----------------|-----------------|-----------------|
|-----------------|-----------------|-----------------|-----------------|
|-----------------|-----------------|-----------------|-----------------|
|-0-0-0-1-0-0-0-0-|-0-0-1-0-0-5-6---|-0-0-0-1-0-0-0-0-|-0-0-0-0-0-0-0-0-|

|-----------------|-----------------|-----------------|-----------------|
|-----------------|-----------------|-----------------|-6-------3---4---|
|-----------------|-----------------|-----------------|---7-5-----4---5-|
|-0-0-0-1-0-0-0-0-|-0-0-1-0-0-5-6---|-0-0-0-1-0-0-0-0-|-------6---------|

|-----------------|-----------------|-----------------|-----------------|
|-----------------|-----------------|-----------------|-6-------3---4---|
|-----------------|-----------------|-----------------|---7-5-----4---5-|
|-1-1-1-1-1-------|-4-------3-------|-0-0-0-1-0-0-0-0-|-------6---------|

|-----------------|-----------------||
|-----------------|-----------------||
|-----------------|-----------------||
|-1-1-1-1-1-------|-4-------3-------||

|-----------------|-----------------|-----------------|-----------------|
|--hp-------------|--hp----hp----hp-|--hp-------------|-----------------|
|-787-------------|-676---565---454-|-787-------------|-----------------|
|-----0-0-0-0-0-0-|-----0-----0-----|-----0-0-0-0-0-0-|-0-0-0-0-0-0-0-0-|

|-----------------|-----------------|-----------------|-----------------|
|--hp-------------|--hp----hp----hp-|--hp-------------|-----------------|
|-787-------------|-676---565---454-|-787-------------|-----------------|
|-----0-0-0-0-0-0-|-----0-----0-----|-----0-0-0-0-0-0-|-0-0-0-0-0-0-0-0-|

|-----------------|-----------------|-----------------|-----------------|
|--hp-------------|--hp----hp----hp-|--hp-------------|-----------------|
|-787-------------|-676---565---454-|-787-------------|-----------------|
|-----0-0-0-0-0-0-|-----0-----0-----|-----0-0-0-0-0-0-|-0-0-0-0-0-0-0-0-|

|-----------------|-----------------|-----------------||
|--hp-------------|--hp----hp----hp-|-----------------||
|-787-------------|-676---565---454-|-8---------------||
|-----0-0-0-0-0-0-|-----0-----0-----|-----------------||

 guitar solo
 232 bpm
|-----------------|-----------------|-----------------|-----------------|
|-----------------|-----------------|-----------------|-----------------|
|-----------------|-----------------|-----------------|-----------------|
|-0-00000000000-6-|-6-00000000000-2-|-2-00000000000-6-|-6-0000002-0-3---|

|-----------------|-----------------|-----------------|-----------------|
|-----------------|-----------------|-----------------|-----------------|
|-----------------|-----------------|-----------------|-----------------|
|-0-00000000000-6-|-6-00000000000-2-|-2-00000000000-6-|-6-0000002-0-3---|

|-----------------|-----------------|-----------------|-----------------|
|-----------------|-----------------|-----------------|-----------------|
|-----------------|-----------------|-----------------|-----------------|
|-0-00000000000-6-|-6-00000000000-2-|-2-00000000000-6-|-6-0000002-0-3---|

|-----------------|-----------------|-----------------|-----------------||
|-----------------|-----------------|-----------------|-----------------||
|-----------------|-----------------|-----------------|-----------------||
|-0-00000000000-6-|-6-00000000000-2-|-2-00000000000-6-|-6-0000002-0-3---||

|-----------------|-----------------|-----------------|-----------------|
|-----------------|-----------------|-----------------|-----------------|
|-----------------|-----------------|-----------------|-----------------|
|-1-1111112-111111|-3-1111114-1-2---|-1-1111112-111111|-3-1111114-1-2---|

|-----------------|-----------------|-----------------|-----------------||
|-----------------|-----------------|-----------------|-----------------||
|-----------------|-----------------|-----------------|-----------------||
|-1-1111112-111111|-3-1111114-1-2---|-1-1111112-111111|-3-1111114-1-2---||

|-----------------|-----------------|-----------------|-----------------|
|-----------------|-----------------|-----------------|-----------------|
|-----------------|-------------5---|-----------------|-------------5---|
|-4-4444445-444444|-6-4444447-4-----|-4-4444445-444444|-6-4444447-4-----|

|-----------------|-----------------|-----------------|-----------------||
|-----------------|-----------------|-----------------|-----------------||
|-----------------|-------------5---|-----------------|-------------5---||
|-4-4444445-444444|-6-4444447-4-----|-4-4444445-444444|-6-4444447-4-----||

|-----------------|-----------------|-----------------|-----------------||
|-----------------|-----------------|-----------------|-----------------||
|-----------------|-----------------|-----------------|-----------------||
|-1-1111112-111111|-3-1111114-1-2---|-1-1111112-111111|-3-1111114-1-2---||

|-----------------|-----------------|-----------------|-----------------||
|-----------------|-----------------|-----------------|-----------------||
|-----------------|-------------5---|-----------------|-------------5---||
|-4-4444445-444444|-6-4444447-4-----|-4-4444445-444444|-6-4444447-4-----||

|-----------------|-----------------|-----------------|-----------------|
|-----------------|-----------------|-----------------|-----------------|
|-----------------|-----------------|-----------------|-----------------|
|-1-1111112-111111|-3-1111114-1-2---|-1-1111112-111111|-3-1111114-1-2---|

|-----------------|-----------------|-----------------|-----------------|
|-----------------|-----------------|-----------------|-----------------|
|-----------------|-----------------|-----------------|-----------------|
|-1-1111112-111111|-3-1111114-1-2---|-1-1111112-111111|-0---------------|

|-----------------|-----------------||
|-----------------|-----------------||
|-----------------|-----------------||
|-----------------|-----------------||

 tempo I
|-----------------|-----------------|-----------------|-----------------|
|-----------------|-----------------|-----------------|-----------------|
|-----------------|-----------------|-----------------|-----------------|
|-0-00000000000-1-|-1-00000000000-2-|-2-00000000000000|-1-0-1-5-----4---|

|-----------------|-----------------|-----------------|-----------------|
|-----------------|-----------------|-----------------|-----------------|
|-----------------|-----------------|-----------------|-----------------|
|-0-00000000000-1-|-1-00000000000-2-|-2-00000000000000|-1-0-1-5-----4---|

|-----------------|-----------------|-----------------|-----------------|
|-----------------|-----------------|-----------------|-----------------|
|-----------------|-----------------|-----------------|-----------------|
|-0-00000000000-1-|-1-00000000000-2-|-2-00000000000000|-1-0-1-5-----4---|

|-----------------|-----------------|-----------------|-----------------|
|-----------------|-----------------|-----------------|-----------------|
|-----------------|-----------------|-----------------|-----------------|
|-0-00000000000-1-|-1-00000000000-2-|-2-00000000000000|-1-0-1-5-----4---|

|-----------------|-----------------||
|-----------------|-----------------||
|---------------7-|-7---------------||
|-1---------------|-----------------||


2: PIECE BY PIECE

Riff 1: [Play 5 Times]
|-----------------------------|--------------------|
|-----------------------------|--------------------|
|-----------------------------|--------------------|
|--3-2-0--6-5-1--0-0-0--0-0-0-|-5-2-0--6-5-1-------|

Riff 2: [Play 2 Times]
|-----------------------------|----------------------------|
|-----------------------------|----------------------------|
|-----------------------------|----------------------------|
|--2-1-0--2-1-0--2-1-0--2-1-0-|-2-1-0--5-4-3--4-3-2--3-2-1-|

Riff 3:
|---------------|
|---------------|
|---------------|
|-5---4---3---2-|

Riff 4: x4
|-------------------------------|------------------------|
|-------------------------------|------------------------|
|-------------------------------|------------------------|
|-0--0-0-0-0-0-0-0--0-0-0-0-0-0-|-0--3--2--0--6-/5--1-/2-|

Riff 5:  x4
|--------------------------------|--------------------------|
|--------------------------------|--------------------------|
|--------------------------------|------------------2--1----|
|-2--0-0-0-0-0-0-0-0-0-2--3--0-0-|-0-0-3--0-0-3--0----------|

|--------------------------------|--------------------------|
|--------------------------------|--------------------------|
|--------------------------------|--------------------------|
|-2--0-0-0-0-0-0-0-0-0-2--3--0-0-|-0-0-3--0-3---------------|


Riff 6: x2 3/4
|-------------------------------|----------------|
|-------------------------------|----------------|
|-------------------------------|----------------|
|-1--1-1-1-1-1-1-1--1-1-1-1-1-1-|-1--1-1-1-1-1-1-|

|-------------------------------|------------------------|
|-------------------------------|------------------------|
|-------------------------------|----2-/1-----4--3--2----|
|-4--4-4-4-4-4-4-4--4-4-4-4-4-4-|-4--------0-------------|

Riff 7: x1
|-----------------|
|-----------------|
|-2----3-----2----|
|-----------------|

Riff 7:
|--------------------|--------------------|--------------------|--------------------|
|--------------------|--------------------|--------------------|--------------------|
|--------------------|-3------------------|-2------------------|--------------------|
|-2------------------|--------------------|--------------------|-1--------4---------|

|------------------------------------|------------------------------------|
|------------------------------------|------------------------------------|
|------------------------------------|------------------------------------|
|-2-2-2-2--2-2-2-2--2-2-2-2--2-2-2-2-|-8-8-8-8--8-8-8-8--8-8-8-8--8-8-8-8-|

|------------------------------------|------------------------------------|
|------------------------------------|------------------------------------|
|------------------------------------|------------------------------------|
|-7-7-7-7--7-7-7-7--7-7-7-7--7-7-7-7-|-1-----1-----1-----4-----4-----4----|

|------------------------------------|------------------------------------|
|------------------------------------|------------------------------------|
|------------------------------------|--3---------------------------------|
|-2-2-2-2--2-2-2-2--2-2-2-2--2-2-2-2-|------------------------------------|

|-----------------------------------------|-------------------------------|
|-----------------------------------------|-------------------------------|
|--2--------------------------------------|-------------------------------|
|-----------------------------------------|--1----------4-----------------|

Riff 8:
|-------------------------|-------------------|
|-------------------------|-------------------|
|-------------------------|-------------------|
|-0--3--2--0--6--5--1--2--|--3----------------|


3: NECROPHOBIC

    E   E
Gb------------|
Db------------|
Ab--7---0-----|
Eb------------|


    E  E  E  E  E  E  E  E  E  E  E  E  E  E  E  E
Gb--------------------------------------------------|
Db--------------------------------------------------|
Ab--------------------------------------------------|
Eb--4--4--5--5--4--4--7--7--4--4--5--5--4--4--7--7--|

    E  E  E  E  E  E  E  E  E  E  E  E  E  E  E  E
Gb--------------------------------------------------|
Db--------------------------------------------------|
Ab--------------------------------------------------|
Eb--5--5--5--5--5--5--5--5--5--5--5--5--5--5--5--5--|

    E  E  E  E  E  E  E  E  E  E  E  E  E  E  E  E
Gb--------------------------------------------------|
Db--------------------------------------------------|
Ab--------------------------------------------------|
Eb--4--4--5--5--4--4--7--7--4--4--5--5--4--4--7--7--|

    E  E  E  E  E  E  E  E  E  E  E  E  E  E  E  E
Gb--------------------------------------------------|
Db--------------------------------------------------|
Ab--------------------------------------------------|
Eb--5--5--5--5--5--5--5--5--5--5--5--5--5--5--5--5--|

Gb--------------------------------------------------|
Db--------------------------------------------------|
Ab--------------------------------------------------|
Eb--3--3--2--2--3--3--1--1--3--3--2--2--3--3--1--1--|

    E  E  E  E  E  E  E  E  E  E  E  E  E  E  E  E
Gb--------------------------------------------------|
Db--------------------------------------------------|
Ab--------------------------------------------------|
Eb--5--5--5--5--5--5--5--5--5--5--5--5--5--5--5--5--|

    E  E  E  E  E  E  E  E  E  E  E  E  E  E  E  E
Gb--------------------------------------------------|
Db--------------------------------------------------|
Ab--------------------------------------------------|
Eb--4--4--5--5--4--4--7--7--4--4--5--5--4--4--7--7--|

    E  E  E  E  E  E  E  E  E  E  E  E  E  E  E  E
Gb--------------------------------------------------|
Db--------------------------------------------------|
Ab--------------------------------------------------|
Eb--5--5--5--5--5--5--5--5--5--5--5--5--5--5--5--5--|

    E  E  E  E  E  E  E  E  E  E  E  E  E  E  E  E
Gb--------------------------------------------------|
Db--------------------------------------------------|
Ab--------------------------------------------------|
Eb--4--4--5--5--4--4--7--7--4--4--5--5--4--4--7--7--|

    E  E  E  E  E  E  E  E  E  E  E  E  E  E  E  E
Gb--------------------------------------------------|
Db--------------------------------------------------|
Ab--------------------------------------------------|
Eb--5--5--5--5--5--5--5--5--5--5--5--5--5--5--5--5--|


    E  E  E  E  E  E  E  E  E  E  E  E  E  E  E  E
Gb--------------------------------------------------|
Db--------------------------------------------------|
Ab--------------------------------------------------|
Eb--3--3--2--2--3--3--1--1--3--3--2--2--3--3--1--1--|

    E  E S  E  E S  E  E S  E  E S  E  E S  E  E S  E  E S  E S
Gb-----------------------------------------------------------------|
Db-----------------------------------------------------------------|
Ab-----------------------------------------------------------------|
Eb--3--3-3--2--2-2--3--3-3--1--1-1--3--3-3--2--2-2--3--3-3--3-1~~~-|

    E  E  E  E  E  E  E  E  E  E  E  E  E  E  E  E
Gb--------------------------------------------------|
Db--------------------------------------------------|
Ab--------------------------------------------------|
Eb--3--3--3--3--3--3--4--4--3--3--3--3--3--3--4--4--|

    E  E  E  E  E  E  E  E  E  E  E  E  E  E  E  E
Gb--------------------------------------------------|
Db--------------------------------------------------|
Ab--------------------------------------------------|
Eb--3--3--3--3--3--3--4--4--3--3--3--3--3--3--4--4--|

    E  E  E  E  E  E  E  E  E  E  E  E  E  E  E  E
Gb--------------------------------------------------|
Db--------------2--2--2--2--------------------------|
Ab--1--1--1--1--------------------------3--3--3--3--|
Eb--------------------------2--2--2--2--------------|

    E  E  E  E  E  E  E  E  E  E  E  E
Gb-------------------------------------|
Db--------------2--2--2--2-------------|
Ab--1--1--1--1-------------------------|
Eb--------------------------2--2--2--2-|

    E  E  E  E  E  E  E  E  E  E  E  E  E  E  E  E  E  E  E  E
Gb-------------------------------------------------------------|
Db-------------------------------------------------------------|
Ab-------------------------------------------------------------|
Eb--5--5--5--5--5--5--5--5--5--5--5--5--5--5--5--5--5--5--5--5-|

    E  E  E  E  E  E  E  E  E  E  E  E  E  E  E  E  E  E  E  E
Gb-------------------------------------------------------------|
Db-------------------------------------------------------------|
Ab-------------------------------------------------------------|
Eb--5--5--5--5--5--5--5--5--5--5--5--5--5--5--5--5--5--5--5--5-|

    E  E  E  E  E  E  E  E  E  E  E  E  E  E  E  E
Gb--------------------------------------------------|
Db--------------------------------------------------|
Ab--------------------------------------------------|
Eb--5--5--5--5--8--8--8--8--7--7--7--7--6--6--6--6--|

    E  E  E  E  E  E  E  E  E  E  E  E  E  E  E  E
Gb--------------------------------------------------|
Db--------------------------------------------------|
Ab--------------------------------------------------|
Eb--5--5--5--5--8--8--8--8--7--7--7--7--6--6--6--6--|

    E  E  E  E  E  E  E  E  E  E  E  E  E  E  E  E
Gb--------------------------------------------------|
Db--------------------------------------------------|
Ab--------------------------------------------------|
Eb--5--5--5--5--8--8--8--8--7--7--7--7--6--6--6--6--|

    E  E  E  E  E  E  E  E  E  E  E  E
Gb-------------------------------------|
Db-------------------------------------|
Ab-------------------------------------|
Eb--5--5--5--5--8--8--8--8--7--7--7--7-|

    E  E S  E  E S  E  E S  E  E S  E  E S  E  E S  E  E S
Gb-----------------------------------------------------------|
Db-----------------------------------------------------------|
Ab-----------------------------------------------------------|
Eb--3--3-3--2--2-2--3--3-3--1--1-1--3--3-3--2--2-2--3--3-3-4-|


E = Eighth Note
S = Sixteenth Note
~ = Ring


4: ALTER OF SACRIFICE

Tune down 1/2 step (Eb,Ab,Db,Gb)

 166 bpm
 9/8
|-------------------|-------------------|-------------------||
|-------------------|-------------------|-------------------||
|-------------------|-------------------|-------------------||
|-2-2-2-2-----2-----|-2-2-2-2-----2-----|-2-----2-2-2-2-----||

 222 bpm
 4/4
|-----------------|-----------------|-----------------|-----------------|
|-----------------|-----------------|-----------------|-----------------|
|-----------------|-----------------|-----------------|-----------------|
|-2222222222222222|-2222222222222222|-2222222222222222|-2222222222222222|

|-----------------|-----------------|-----------------|-----------------||
|-----------------|-----------------|-----------------|-----------------||
|-----------------|-----------------|-----------------|-----------------||
|-2222222222222222|-2222222222222222|-2222222222222222|-2222222222222222||

 verse 1
|-----------------|-----------------|-----------------|-----------------|
|-----------------|-----------------|-----------------|-----------------|
|-----------------|-----------------|-----------------|-----------------|
|-2222222222222222|-2222222222222222|-2222222222222222|-2222222222222222|

|-----------------|-----------------|-----------------|-----------------||
|-----------------|-----------------|-----------------|-----------------||
|-----------------|-----------------|-----------------|-----------------||
|-2222222222222222|-2222222222222222|-2222222222222222|-2222222222222222||

|-----------------|-----------------|-----------------|-----------------|
|-----------------|-----------------|-----------------|-----------------|
|-------------3---|-------------4---|-------------6---|-------------5---|
|-3-33333-6-3-----|-3-33333-6-3-----|-3-33333-6-3-----|-3-33333-6-3-----|

|-----------------|-----------------|-----------------|-----------------||
|-----------------|-----------------|-----------------|-----------------||
|-------------3---|-------------4---|-------------6---|-------------5---||
|-3-33333-6-3-----|-3-33333-6-3-----|-3-33333-6-3-----|-3-33333-6-3-----||

|-----------------|-----------------|-----------------|-----------------|
|-----------------|-----------------|-----------------|-----------------|
|-----------------|-----------------|-----------------|-----------------|
|-2222222222222222|-2222222222222222|-2222222222222222|-2222222222222222|

                                    3/4
|-----------------|-----------------|-------------||
|-----------------|-----------------|-------------||
|-----------------|-----------------|-------------||
|-2222222222222222|-2222222222222222|-2-2-2-2---2-||

 verse 2
|-----------------|-----------------|-----------------|-----------------|
|-----------------|-----------------|-----------------|-----------------|
|-----------------|-----------------|-----------------|-----------------|
|-2222222222222222|-2222222222222222|-2222222222222222|-2222222222222222|

|-----------------|-----------------|-----------------|-----------------||
|-----------------|-----------------|-----------------|-----------------||
|-----------------|-----------------|-----------------|-----------------||
|-2222222222222222|-2222222222222222|-2222222222222222|-2222222222222222||

 chorus
|-----------------|------------------|-----------------|-------------------|
|-----------------|-------------h-p--|-----------------|--------------h-p--|
|-7---------------|------------8108\7|-7---------------|-------------8108\7|
|---00007\6---000-|-5---009\8--------|---00007\6---000-|-5---009\8---------|
                    1   2   3   4                         1   2   3   4

|-----------------|------------------|-----------------|-------------------|
|-----------------|------------------|-----------------|-------------------|
|-7---------------|------------8108\7|-7---------------|-------------8108\7|
|---00007\6---000-|-5---009\8--------|---00007\6---000-|-5---009\8---------|
                    1   2   3   4                         1   2   3   4

|-----------------|-----------------|
|-----------------|-----------------|
|-3---------------|-2---------------|
|-----------------|-----------------|

 guitar solo I
|-----------------|-----------------|-----------------|-----------------|
|-----------------|-----------------|-----------------|-----------------|
|---------8-------|-6------------pp-|---------8-------|-6------------pp-|
|-5-55555---55555-|---555-55555-865-|-5-55555---55555-|---555-55555-865-|

|-----------------|-----------------|-----------------|-----------------||
|-----------------|-----------------|-----------------|-----------------||
|---------8-------|-6------------pp-|---------8-------|-6------------pp-||
|-5-55555---55555-|---555-55555-865-|-5-55555---55555-|---555-55555-865-||

|-----------------|------------------|------------------|------------------|
|-----------------|------------------|------------------|------------------|
|--------11-------|-9-------------pp-|---------11-------|-9-------------pp-|
|-8-88888---88888-|---888-88888-1198-|-8-88888----88888-|---888-88888-1198-|
  1   2   3    4     1   2   3   4      1   2   3    4     1   2   3   4

|-----------------|------------------|------------------|------------------|
|-----------------|------------------|------------------|------------------|
|--------11-------|-9-------------pp-|---------11-------|-9-------------pp-|
|-8-88888---88888-|---888-88888-1198-|-8-88888----88888-|---888-88888-1198-|
  1   2   3    4     1   2   3   4      1   2   3    4     1   2   3   4

|-----------------|-----------------||
|-----------------|------------h-p--||
|-----------------|-----------8108\7||
|-8---------------|-----------------||

 chorus
|----------------|-------------------|-----------------|-------------------|
|----------------|--------------h-p--|-----------------|--------------h-p--|
|-7--------------|-------------8108\7|-7---------------|-------------8108\7|
|--00007\6---000-|-5---009\8---------|---00007\6---000-|-5---009\8---------|
                    1   2   3   4                         1   2   3   4

|----------------|-------------------|-----------------|-------------------|
|----------------|--------------h-p--|-----------------|--------------h-p--|
|-7--------------|-------------8108\7|-7---------------|-------------8108\7|
|--00007\6---000-|-5---009\8---------|---00007\6---000-|-5---009\8---------|
                    1   2   3   4                         1   2   3   4

|-----------------|-----------------|-----------------|-----------------||
|-----------------|-----------------|-----------------|-----------------||
|-------1-0-----3-|-------1-0-----3-|-------1-0-----3-|-------1-0-----3-||
|-2-0-2-----1-2---|-2-0-2-----1-2---|-2-0-2-----1-2---|-2-0-2-----1-2---||

 guitar solo II
 144 bpm  12/8
|-------------------------|-------------------------|
|-------------------------|-------------------------|
|-------------------------|-------------------------|
|-1-0-0-3-0-0-1-0-0-3-0-0-|-1-0-0-3-0-0-5-----6-----|

|-------------------------|-------------------------||
|-------------------------|-------------------------||
|-------------------------|-------------------------||
|-1-0-0-3-0-0-1-0-0-3-0-0-|-1-0-0-3-0-0-5-----6-----||

 verse 3
|-------------------------|-------------------------|
|-------------------------|-------------------------|
|-------------------------|---------------2-1-0-----|
|-1-0-0-3-0-0-1-0-0-3-0-0-|-1-0-0-3-0-0-3-------2-0-|

|-------------------------|-------------------------|
|-------------------------|-------------------------|
|-------------------------|---------------2-1-0-----|
|-1-0-0-3-0-0-1-0-0-3-0-0-|-1-0-0-3-0-0-3-------2-0-|

|-------------------------|-------------------------|
|-------------------------|-------------------------|
|-------------------------|---------------2-1-0-----|
|-1-0-0-3-0-0-1-0-0-3-0-0-|-1-0-0-3-0-0-3-------2-0-|

|-------------------------|-------------------------||
|-------------------------|-------------------------||
|-------------------------|---------------2-1-0-----||
|-1-0-0-3-0-0-1-0-0-3-0-0-|-1-0-0-3-0-0-3-------2-0-||

|-------------------------|-------------------------|
|-------------------------|-------------------------|
|-------------------------|-3-----------2-----------|
|-2-2-2-2-2-2-3-2-2-2-2-2-|---2-2-2-2-2---2-2-0-----|

|-------------------------|-------------------------||
|-------------------------|-------------------------||
|-------------------------|-3-----------2-----1-----||
|-2-2-2-2-2-2-3-2-2-2-2-2-|---2-2-2-2-2---2-2-------||

 guitar solo III
|-------------------------|-------------------------|
|-------------------------|-------------------------|
|-------------------------|-------------------------|
|-1-0-0-3-0-0-1-0-0-3-0-0-|-1-0-0-3-0-0-5-----6-----|

|-------------------------|-------------------------||
|-------------------------|-------------------------||
|-------------------------|-------------------------||
|-1-0-0-3-0-0-1-0-0-3-0-0-|-1-0-0-3-0-0-5-----6-----||

 verse 4
|-------------------------|-------------------------|
|-------------------------|-------------------------|
|-------------------------|---------------2-1-0-----|
|-1-0-0-3-0-0-1-0-0-3-0-0-|-1-0-0-3-0-0-3-------2-0-|

|-------------------------|-------------------------|
|-------------------------|-------------------------|
|-------------------------|---------------2-1-0-----|
|-1-0-0-3-0-0-1-0-0-3-0-0-|-1-0-0-3-0-0-3-------2-0-|

|-------------------------|-------------------------|
|-------------------------|-------------------------|
|-------------------------|---------------2-1-0-----|
|-1-0-0-3-0-0-1-0-0-3-0-0-|-1-0-0-3-0-0-3-------2-0-|

|-------------------------|-------------------------||
|-------------------------|-------------------------||
|-------------------------|---------------2-1-0-----||
|-1-0-0-3-0-0-1-0-0-3-0-0-|-1-0-0-3-0-0-3-------2-0-||

 guitar solo IV
|-------------------------|-------------------------|
|-------------------------|-------------------------|
|-------------------------|-3-----------2-----------|
|-2-2-2-2-2-2-3-2-2-2-2-2-|---2-2-2-2-2---2-2-0-----|

|-------------------------|-------------------------|
|-------------------------|-------------------------|
|-------------------------|-3-----------2-----1-----|
|-2-2-2-2-2-2-3-2-2-2-2-2-|---2-2-2-2-2---2-2-------|

|-------------------------|-------------------------|
|-------------------------|-------------------------|
|-------------------------|-3-----------2-----------|
|-2-2-2-2-2-2-3-2-2-2-2-2-|---2-2-2-2-2---2-2-0-----|

|-------------------------|-------------------------||
|-------------------------|-------------------------||
|-------------------------|-3-----------2-----1-----||
|-2-2-2-2-2-2-3-2-2-2-2-2-|---2-2-2-2-2---2-2-------||

|-------------------------|-------------------------|
|-------------------------|-------------------------|
|-------------------------|-------------------------|
|-0-0-0-0-0-5\4-----0-0-0-|-3-----0-0-7\6-----0-0-0-|

|-------------------------|-------------------------|
|-------------------------|-------------------------|
|-------------------------|-------------------------|
|-0-0-0-0-0-5\4-----0-0-0-|-3-----0-0-7\6-----0-0-0-|

 grad. rit.
|-------------------------|-------------------------|
|-------------------------|-------------------------|
|-------------------------|-------------------------|
|-0-0-0-0-5---4-----0-0-0-|-3-----0-0-7-6-----0-0-0-|

|-------------------------|-------------------------|
|-------------------------|-------------------------|
|-------------------------|-------------------------|
|-0-0-0-0-5---4-----0-0-0-|-3-----0-7-7-6-----0-0-0-|

|-------------------------|-------------------------||
|-------------------------|-------------------------||
|-------------------------|-------------------------||
|-0-0-0-0-5---4-----0-0-0-|-3-----0-7---6-----------||


5: JESUS SAVES

Tune down 1/2 step (Eb,Ab,Db,Gb)

 140 bpm
|-----------------|-----------------|-----------------|-----------------|
|-----------------|-----------------|-----------------|-----------------|
|-----------------|-----------------|-----------------|-----------------|
|(6)--------------|(6)--------------|-0---------------|-----------------|
(from "altar of sacrifice")

|-----------------|-----------------|-----------------|-----------------||
|-----------------|-----------------|-----------------|-----------------||
|-----1-----------|-----1-----------|-----1-----------|-----2-------1---||
|-------------0---|-------------0---|-------------0---|-0-0-----0-0-----||

                                tr.
|-----------------|-----------------|-----------------|-----------------|
|-----------------|-------------1(2)|-----------------|-----------------|
|-----1---1-----1-|---1-----2\1-----|-----1---1-----1-|---2\1-----2-1---|
|-0-0---0---0-0---|-0---0-0---------|-0-0---0---0-0---|-0-----2-4-------|

                                tr.
|-----------------|-----------------|-----------------|-----------------||
|-----------------|-------------1(2)|-----------------|-----------------||
|-----1---1-----1-|---1-----2\1-----|-----1---1-----1-|-----2-------1---||
|-0-0---0---0-0---|-0---0-0---------|-0-0---0---0-0---|-0-0-----0-0-----||

|-----------------|-----------------|-----------------|-----------------|
|-----------------|-----------------|-----------------|-----------------|
|-----------------|-----------------|-----------------|-----------------|
|-0-000-0000000-00|-00000-0000000-00|-00000-0000000-00|-00000-0000000-00|

|-----------------|-----------------|-----------------|-----------------||
|-----------------|-----------------|-----------------|-----------------||
|-----------------|-----------------|-----------------|-----------------||
|-00000-0000000-00|-00000-0000000-00|-00000-0000000-00|-00000-0000000-00||

|-----------------|-----------------|-----------------|-----------------||
|-----------------|-----------------|-----------------|-----------------||
|-----------------|-----------------|-----------------|-----------------||
|-5-5-5-6-----6-6-|-9-9-9-8-----8-8-|-5-5-5-6-----6-6-|-9-9-9-8-8-8-8-8-||

 9/8                                      tr.
|----------------------|-------------------------|
|----------------------|-------------------------|
|-----8-7----8-7-11-10-|-----8-7---8-7-11-10(11)-|
|-0-0------0-----------|-0-0-----0---------------|

                                          tr.
|----------------------|-------------------------|
|----------------------|-------------------------|
|-----8-7----8-7-11-10-|-----8-7---8-7-11-10(11)-|
|-0-0------0-----------|-0-0-----0---------------|

                                          tr.
|----------------------|-------------------------|
|----------------------|-------------------------|
|-----8-7----8-7-11-10-|-----8-7---8-7-11-10(11)-|
|-0-0------0-----------|-0-0-----0---------------|

                                          tr.
|----------------------|-------------------------||
|----------------------|-------------------------||
|-----8-7----8-7-11-10-|-----8-7---8-7-11-10(11)-||
|-0-0------0-----------|-0-0-----0---------------||

 4/4
 210 bpm
|-----------------|-----------------|-----------------|-----------------|
|-----------------|-----------------|-----------------|-----------------|
|-----------------|-----------------|-----------------|-----------------|
|-0---------------|-----------------|-----------------|-----------------|

|-----------------|-----------------|-----------------|-----------------||
|-----------------|-----------------|-----------------|-----------------||
|-----------------|-----------------|-----------------|-----------------||
|-0000000000000000|-0000000000000000|-0000000000000000|-0000000000000000||

 verse 1
|-----------------|-----------------|-----------------|-----------------|
|-----------------|-----------------|-----------------|-----------------|
|-----------------|-----------------|-----------------|-----------------|
|-0000000030000000|-500000004-7-6---|-0000000030000000|-500000004-7-6---|

|-----------------|-----------------|-----------------|-----------------||
|-----------------|-----------------|-----------------|-----------------||
|-----------------|-----------------|-----------------|-----------------||
|-0000000030000000|-500000004-7-6---|-0000000030000000|-500000004-7-6---||

 chorus
|-----------------|-----------------|-----------------|-----------------|
|-----------------|-----------------|-----------------|-----------------|
|-----------------|-----------------|-----------------|-----------------|
|-0000530000005300|-000053005---6---|-0000530000005300|-000053005---6---|

|-----------------|-----------------||
|-----------------|-----------------||
|-----------------|-----------------||
|-0000530000005300|-000053005---6---||

|-----------------|-----------------|-----------------|-----------------||
|-----------------|-----------------|-----------------|-----------------||
|-----------------|-----------------|-----------------|-----------------||
|-0000000030000000|-500000004-7-6---|-0000000030000000|-500000004-7-6---||

 verse 2
|-----------------|-----------------|-----------------|-----------------|
|-----------------|-----------------|-----------------|-----------------|
|-----------------|-----------------|-----------------|-----------------|
|-0000000030000000|-500000004-7-6---|-0000000030000000|-500000004-7-6---|

|-----------------|-----------------|-----------------|-----------------||
|-----------------|-----------------|-----------------|-----------------||
|-----------------|-----------------|-----------------|-----------------||
|-0000000030000000|-500000004-7-6---|-0000000030000000|-500000004-7-6---||

 guitar solo I
|-----------------|-----------------|-----------------|-----------------|
|-----------------|-----------------|-----------------|-----------------|
|-----------------|-----------------|-----------------|-----------------|
|-4444444444445555|-4444444444445555|-4444444444445555|-8888888877777777|

|-----------------|-----------------|-----------------|-----------------||
|-----------------|-----------------|-----------------|-----------------||
|-----------------|-----------------|-----------------|-----------------||
|-4444444444445555|-4444444444445555|-4444444444445555|-8888888877777777||

 chorus
|-----------------|-----------------|-----------------|-----------------|
|-----------------|-----------------|-----------------|-----------------|
|-----------------|-----------------|-----------------|-----------------|
|-0000530000005300|-000053005---6---|-0000530000005300|-000053005---6---|

|-----------------|-----------------||
|-----------------|-----------------||
|-----------------|-----------------||
|-0000530000005300|-000053005---6---||

 guitar solo II
|-----------------|-----------------|-----------------|-----------------|
|-----------------|-----------------|-----------------|-----------------|
|-----------------|-----------------|-----------------|-----------------|
|-0000000033333333|-2222222266666666|-0000000033333333|-2222222288888888|

|-----------------|-----------------|-----------------|-----------------|
|-----------------|-----------------|-----------------|-----------------|
|-----------------|-----------------|-----------------|-----------------|
|-0000000033333333|-2222222266666666|-0000000033333333|-2222222288888888|

|-----------------|-----------------|-----------------|-----------------|
|-----------------|-----------------|-----------------|-----------------|
|-----------------|-----------------|-----------------|-----------------|
|-0000000033333333|-2222222266666666|-0000000033333333|-2222222288888888|

|-----------------|-----------------|-----------------|-----------------||
|-----------------|-----------------|-----------------|-----------------||
|-----------------|-----------------|-----------------|-----------------||
|-0000000033333333|-2222222266666666|-0000000033333333|-2222222288888888||

|-----------------|-----------------|-----------------|-----------------||
|-----------------|-----------------|-----------------|-----------------||
|-----------------|-----------------|-----------------|-----------------||
|-0---------------|-----------------|-0000000000000000|-0000000000000000||

|-----------------|-----------------|-----------------|-----------------||
|-----------------|-----------------|-----------------|-----------------||
|-----------------|-----------------|-----------------|-----------------||
|-0000000030000000|-500000004-7-6---|-0000000030000000|-500000004-7-6---||

 chorus
|-----------------|-----------------|-----------------|-----------------|
|-----------------|-----------------|-----------------|-----------------|
|-----------------|-----------------|-----------------|-----------------|
|-0000530000005300|-000053005---6---|-0000530000005300|-000053005---6---|

|-----------------|-----------------||
|-----------------|-----------------||
|-----------------|-----------------||
|-0000530000005300|-000053005---6---||

|-----------------|-----------------|-----------------||
|-----------------|-----------------|-----------------||
|-----------------|-----------------|-----------------||
|-5-----------6-5-|---------6-5-----|-----6-----------||

 guitar solo III
 228 bpm
|-----------------|-----------------|-----------------|-----------------|
|-----------------|-----------------|-----------------|-----------------|
|-----------------|-----------------|-----------------|-----------------|
|-6555555555555555|-6555555555555555|-6555555555555-5-|-6666666666666666|

|-----------------|-----------------|-----------------|-----------------|
|-----------------|-----------------|-----------------|-----------------|
|-----------------|-----------------|-----------------|-----------------|
|-6555555555555555|-6555555555555555|-6555555555555-5-|-6666666666666666|

|-----------------|-----------------|-----------------|-----------------|
|-----------------|-----------------|-----------------|-----------------|
|-----------------|-----------------|-----------------|-----------------|
|-6555555555555555|-6555555555555555|-6555555555555-5-|-6666666666666666|

|-----------------|-----------------|-----------------|-----------------|
|-----------------|-----------------|-----------------|-----------------|
|-----------------|-----------------|-----------------|-----------------|
|-6555555555555555|-6555555555555555|-6555555555555-5-|-6666666666666666|

|-----------------||
|-----------------||
|-----------------||
|-6---------------||


6: CRIMINALLY INSANE

Riff 1: x2
Gb|-----------------------------------------------|
Db|-----------------------------------------------|
Ab|-------------5-----------------------5---------|
Eb|-2--2--2--2-----2--2--2---2--2--2--2---2--2--2-|

Riff 2:
Gb|------------------------------------------------|
Db|------------------------------------------------|
Ab|-------------6------------------------6---------|
Eb|-3--3--3--3-----3--3--3---3--3--3--3----3--3--3-|

Riff 1: x1
Riff 2: x1
Riff 1: x2

Riff 3: x3
Gb|---------------------------------------------------|
Db|---------------------------------------------------|
Ab|---------------------------------------------------|
Eb|-0--0--0--0---1--0--0--0---1--3--0--0---3--4--0--0-|

Riff 4:
Gb|------------------------------------------------------|
Db|------------------------------------------------------|
Ab|------------------------------------------------------|
Eb|-0--0--0--0---1--0--0--0---1--3---------3--4----------|

Riff 5: x5
Gb|-----------------------------------|---------------------------------|
Db|-----------------------------------|---------------------------------|
Ab|-----------------------------------|---------------------------------|
Eb|-0--0-0--0-0-0-0--1--0-0--0-0-0-0--|-1---3---0-0-0-0--3--4--0-0-0-0--|

Riff 6: x4
Gb|-----------------------------------|------------------------------------|
Db|-----------------------------------|------------------------------------|
Ab|-----------------------------------|------------------------------------|
Eb|1-1-1-1--1-1-1-1--1-1-1-1--2-2-2-2-|-2-2-2-2--4-4-4-4--5-5-5-5--0-0-0-0-|
								   ^ ^ ^ ^ 
                                                           [Don't Play 4th time Round]
Gb|-------------------------------|-----------------------------|
Db|-------------------------------|-----------------------------|
Ab|-------------------------------|-----------------------------|
Eb|-0-----------------------------|----0--3---------3-4---------|

Riff 5: x4 - last time without last beat

Gb|--------------------------------|
Db|--------------------------------|
Ab|--------------------------------|
Eb|-0--1--3--3---------3-----------|

Riff 7: x6
Gb:-------------------------------------|----------------------------------|
Db:-------------------------------------|----------------------------------|
Ab:-------------------------------------|----------------------------------|
Eb:-1-1-1-1--1-1-1-1--0-0-0-0--0-0-0-0--|-1--3---0-0-0-0---3--4---0-0-0-0--|

Riff 6: x4

Gb|-------------------------------------|
Db|-------------------------------------|
Ab|-------------------------------------|
Eb|-0-----------------------------------|

Riff 8: x8
Gb:----------------------------------|
Db:----------------------------------|
Ab:------------------2-1-------2-1---|
Eb:--0-3-2-0-3-2-0-3-----2-0-3-----2-|

Riff 3: x4
Riff 4: x1
Riff 5: x3

Gb|---------------------------------|--------------------------------|
Db|---------------------------------|--------------------------------|
Ab|---------------------------------|--------------------------------|
Eb|-0--0-0--0-0-0-0-1--0-0--0-0-0-0-|-1---3-----------3--4-----------|


7: REBORN

Riff 1:
Gb|--------------------------------|--------------------------------|
Db|--------------------------------|--------------------------------|
Ab|--------------------------------|--------------------------------|
Eb|0-----------------------2-3-----|----------------3-------3-6-----|

Riff 2:
Gb|--------------------------------|--------------------------------|
Db|--------------------------------|--------------------------------|
Ab|--------------------------------|--------------------------------|
Eb|0---0-0-7\6-0-0-2---0-0-2-3-----|0---0-0-7\6-0-0-3---0-0-3-6-----|

Riff 3:
Gb|----------------|----------------|
Db|----------------|----------------|
Ab|----------------|----------------|
Eb|222222222-2-3-3-|222222222-0-6---|

Riff 4:
Gb|----------------|----------------|
Db|----------------|----------------|
Ab|----------------|----------------|
Eb|00000-0-4-0-3-0-|00000-0-3-0-2-0-|

Riff 5:
Gb|----------------|----------------|----------------|----------------|
Db|----------------|----------------|----------------|----------------|
Ab|----------------|----------------|----------------|----------------|
Eb|1111111155555555|444444444-0-3---|1111111155555555|444444444-0-7---|

Riff 6:
Gb|----------------|----------------|----------------|----------------|
Db|----------------|----------------|----------------|----------------|
Ab|----------------|----------------|----------------|----------------|
Eb|----------------|----------------|------------3-3-|------------6---|

Riff 7:
Gb|----------------|-----------------|
Db|----------------|-----------------|
Ab|----------------|-----------------|
Eb|4444444488888888|7777777777--5----|

Riff 8:
Gb|----------------|----------------|
Db|----------------|----------------|
Ab|----------------|----------------|
Eb|0000000011111111|444444443-0-2---|

Riff 9:
Gb|------------------------|
Db|------------------------|
Ab|------------------------|
Eb|3-3-2-5-2-2-3-3-2-5-2-2-|


8: EPIDEMIC

Riff 1:
Gb|---------------------------------|----------------------------------|
Db|---------------------------------|----------------------------------|
Ab|---------------------------------|------------------------------2/1-|
Eb|-0-00000-0-00000-1-000-1-000-4/3-|--0-00000-0-00000-1-000-1-000-----|

Riff 2:
Gb|---------------------------------|
Db|---------------------------------|
Ab|---------------------------------|
Eb|-2-22222-2-22222-2-222--6--5--3--|

Riff 3:
Gb|-----------------|-----------------|-------------------|----------------|
Db|-----------------|-----------------|-------------------|----------------|
Ab|-----------------|-----------------|-------------------|----------------|
Eb|0-00000-3-5-6p5p3|-0-00000-1-0-4/3-|-0-00000-3-5-6p5p3-|-0-00000-0-1--1-|

Riff 4:
Gb|--------------------------------|
Db|--------------------------------|
Ab|--------------------------------|
Eb|-4-44444-4-44444-4-444--5--7--5-|

Riff 5:
Gb|----------------------------------------------------------------|
Db|----------------------------------------------------------------|
Ab|--7------10------10-----9-------8------8-----7-----10-----10----|
Eb|----0-0------0-0-----0-----000-----0-0----0----0-0----0-0-----0-|

Gb|------------------------------------------------------------------------|
Db|------------------------------------------------------------------------|
Ab|--7-----10-----10----9------8-----8----7----10----10-----9--------------|
Eb|----0-0---0-0-----0-----000----0-0---0---0-0---0-0---0---000-000-000-00-|

Riff 6:
Gb|------------------------------------------|-------|
Db|------------------------------------------|-------|
Ab|-9//--------------------------------------|-------|
Eb|------------------------------------------|-l-3-3-|


9: POSTMORTEM

Tune down 1/2 step (Eb,Ab,Db,Gb)

 140 bpm
     12/8
-------|-------------------------|-------------------------|
-------|-------------------------|-------------------------|
-------|-------------------------|-------------------------|
-------|-0-----------------------|-4\3---------------------|

|-------------------------|-------------------------|
|-------------------------|-------------------------|
|-------------------------|-6-----6-----------------|
|-4\3---------------------|-------------------------|

|-------------------------|-------------------------|
|-------------------------|-------------------------|
|-------------------------|-------------------------|
|-0-----------------------|-4\3---------------------|

                                                    6/8
|-------------------------|-------------------------|-------------|
|-------------------------|-------------------------|-------------|
|-------------------------|-6------6----------------|-------------|
|-4\3---------------------|-------------------------|-1-----------|

 12/8
|-------------------------|-------------------------|
|-------------------------|-------------------------|
|-------------------------|-------------------------|
|-0-----------------------|-4\3---------------------|

|-------------------------|-------------------------||
|-------------------------|-------------------------||
|-------------------------|-------------------------||
|-4\3---------------------|-1-----------0-----------||

|-------------------------|-------------------------|
|-------------------------|-------------------------|
|-------------------------|-------------------------|
|-0---1-0-0-0-0-0-0-0-0-0-|-0---1-0-0-0-0-0-0-0-0-0-|

|-------------------------|-------------------------|
|-------------------------|-------------------------|
|-------------------------|-------------------------|
|-0---1-0-0-0-0-0-0-0-0-0-|-0/1-1-1/4-4-4\3-3-3\1-1-|

|-------------------------|-------------------------|
|-------------------------|-------------------------|
|-------------------------|-------------------------|
|-0---1-0-0-0-0-0-0-0-0-0-|-0---1-0-0-0-0-0-0-0-0-0-|

|-------------------------|-------------------------||
|-------------------------|-------------------------||
|-------------------------|-------------------------||
|-0---1-0-0-0-0-0-0-0-0-0-|-0/1-1-1/4-4-4\3-3-3\1-1-||

 verse 1
|-------------------------|-------------------------|
|-------------------------|-------------------------|
|-------------------------|-------------------------|
|-0---1-0-0-0-0-0-0-0-0-0-|-0---1-0-0-0-0-0-0-0-0-0-|

|-------------------------|-------------------------|
|-------------------------|-------------------------|
|-------------------------|-------------------------|
|-0---1-0-0-0-0-0-0-0-0-0-|-0/1-1-1/4-4-4\3-3-3\1-1-|

|-------------------------|-------------------------|
|-------------------------|-------------------------|
|-------------------------|-------------------------|
|-0---1-0-0-0-0-0-0-0-0-0-|-0---1-0-0-0-0-0-0-0-0-0-|

|-------------------------|-------------------------||
|-------------------------|-------------------------||
|-------------------------|-------------------------||
|-0---1-0-0-0-0-0-0-0-0-0-|-0/1-1-1/4-4-4\3-3-3\1-1-||

|-------------------------|-------------------------|
|-------------------------|-------------------------|
|-------------------------|-------------------------|
|-4-4-4-4-4-4-3-3-3-6-6-6-|-2-2-2-2-2-2-2-2-2-2-2-2-|

|-------------------------|-------------------------|
|-------------------------|-------------------------|
|-------------------------|-------------------------|
|-4-4-4-4-4-4-3-3-3-6-6-6-|-7-7-7-7-7-7-7-7-7-7-7-7-|

|-------------------------|-------------------------|
|-------------------------|-------------------------|
|-------------------------|-------------------------|
|-4-4-4-4-4-4-3-3-3-6-6-6-|-2-2-2-2-2-2-2-2-2-2-2-2-|

|-------------------------|-------------------------||
|-------------------------|-------------------------||
|-------------------------|-------------------------||
|-4-4-4-4-4-4-3-3-3-6-6-6-|-7-7-7-7-----7-7-7-7-----||

|-------------------------|-------------------------|
|-------------------------|-------------------------|
|-------------------------|-------------------------|
|-0---1-0-0-0-0-0-0-0-0-0-|-0---1-0-0-0-0-0-0-0-0-0-|

|-------------------------|-------------------------|
|-------------------------|-------------------------|
|-------------------------|-------------------------|
|-0---1-0-0-0-0-0-0-0-0-0-|-0/1-1-1/4-4-4\3-3-3\1-1-|

|-------------------------|-------------------------|
|-------------------------|-------------------------|
|-------------------------|-------------------------|
|-0---1-0-0-0-0-0-0-0-0-0-|-0---1-0-0-0-0-0-0-0-0-0-|

|-------------------------|-------------------------||
|-------------------------|-------------------------||
|-------------------------|-------------------------||
|-0---1-0-0-0-0-0-0-0-0-0-|-0/1-1-1/4-4-4\3-3-3\1-1-||

 verse 2
|-------------------------|-------------------------|
|-------------------------|-------------------------|
|-------------------------|-------------------------|
|-0---1-0-0-0-0-0-0-0-0-0-|-0---1-0-0-0-0-0-0-0-0-0-|

|-------------------------|-------------------------|
|-------------------------|-3-----------2-----------|
|-------------------------|---5-4-3-------4-3-2-----|
|-0---1-0-0-0-0-0-0-0-0-0-|---------4-0---------3-0-|

|-------------------------|-------------------------|
|-------------------------|-------------------------|
|-------------------------|-------------------------|
|-0---1-0-0-0-0-0-0-0-0-0-|-0---1-0-0-0-0-0-0-0-0-0-|

|-------------------------|-------------------------||
|-------------------------|-3-----------2-----------||
|-------------------------|---5-4-3-------4-3-2-----||
|-0---1-0-0-0-0-0-0-0-0-0-|---------4-0---------3-0-||

|-------------------------|-------------------------|
|-------------------------|-------------------------|
|-------------------------|-------------------------|
|-4-4-4-4-4-4-3-3-3-6-6-6-|-2-2-2-2-2-2-2-2-2-2-2-2-|

|-------------------------|-------------------------|
|-------------------------|-------------------------|
|-------------------------|-------------------------|
|-4-4-4-4-4-4-3-3-3-6-6-6-|-7-7-7-7-7-7-7-7-7-7-7-7-|

|-------------------------|-------------------------|
|-------------------------|-------------------------|
|-------------------------|-------------------------|
|-4-4-4-4-4-4-3-3-3-6-6-6-|-2-2-2-2-2-2-2-2-2-2-2-2-|

|-------------------------|-------------------------||
|-------------------------|-------------------------||
|-------------------------|-------------------------||
|-4-----4-4-4-3-----6-----|-7-7-7-7-7-7-7-7-7-7-----||

|-------------------------|-------------------------|
|-------------------------|-------------------------|
|-------------------------|-------------------------|
|-0-----------------------|-4\3---------------------|

|-------------------------|-------------------------|
|-------------------------|-------------------------|
|-------------------------|-6-----6-----------------|
|-4\3---------------------|-------------------------|

|-------------------------|-------------------------|
|-------------------------|-------------------------|
|-------------------------|-------------------------|
|-0-----------------------|-4\3---------------------|

                                                    6/8
|-------------------------|-------------------------|-------------|
|-------------------------|-------------------------|-------------|
|-------------------------|-6------6----------------|-------------|
|-4\3---------------------|-------------------------|-1-----------|

 12/8
|-------------------------|-------------------------|
|-------------------------|-------------------------|
|-------------------------|-------------------------|
|-0-----------------------|-4\3---------------------|

|-------------------------|-------------------------||
|-------------------------|-------------------------||
|-------------------------|-------------------------||
|-4\3---------------------|-1-----------0-----------||

 164 bpm
 4/4
|-----------------|-----------------|-----------------|-----------------|
|-----------------|-----------------|-----------------|-----------------|
|-----------------|-----------------|-----------------|-----------------|
|-0---------------|(0)--------------|-0---------------|(0)--------------|

|-----------------|-----------------|-----------------|-----------------|
|-----------------|-----------------|-----------------|-----------------|
|-----------------|-----------------|-----------------|-----------------|
|-----------------|-----------------|-----------------|-----------------|

|-----------------|-----------------|-----------------|-----------------|
|-----------------|-----------------|-----------------|-----------------|
|-----------------|-----------------|-----------------|-----------------|
|-0---------------|(0)--------------|-0---------------|(0)--------------|

|-----------------|-----------------|-----------------|-----------------|
|-----------------|-----------------|-----------------|-----------------|
|-----------------|-----------------|-----------------|-----------------|
|-----------------|-----------------|-----------------|-----------------|

|-----------------|-----------------|-----------------|-----------------|
|-----------------|-----------------|-----------------|-----------------|
|-----------------|-----------------|-----------------|-----------------|
|-----------------|-----------------|-----------------|-----------------|

|-----------------||
|-----------------||
|-----------------||
|-4---------------||

 240 bpm
|-----------------|-----------------|-----------------|-----------------|
|-----------------|-----------------|-----------------|-----------------|
|-----------------|-----------------|-----------------|-----------------|
|-4---------------|-----------------|-----------------|-----------------|

|-----------------|-----------------|-----------------|-----------------|
|-----------------|-----------------|-----------------|-----------------|
|-----------------|-----------------|-----------------|-----------------|
|-4-44444-3-33333-|-6-66666-2-2-2222|-4-44444-3-33333-|-6-66666-7-77777-|

|-----------------|-----------------|-----------------|-----------------|
|-----------------|-----------------|-----------------|-----------------|
|-----------------|-----------------|-----------------|-----------------|
|-4-44444-3-33333-|-6-66666-2-2-2222|-4-44444-3-33333-|-6-66666-7-77777-|

|-----------------|-----------------|-----------------|-----------------||
|-----------------|-----------------|-----------------|-----------------||
|-----------------|-----------------|-----------------|-----------------||
|-4-44444-3-33333-|-6-66666-2-2-2222|-4-44444-3-33333-|-6-66666-7-77777-||

|-----------------|-----------------|-----------------|-----------------|
|-----------------|-----------------|-----------------|-----------------|
|---------5-55555-|-4-44444-3-33333-|-----------------|-----------------|
|-2-22222---------|-----------------|-2-22222-3-33333-|-7-77777-6-66666-|

|-----------------|-----------------|-----------------|-----------------||
|-----------------|-----------------|-----------------|-----------------||
|---------5-55555-|-4-44444-3-33333-|-----------------|-----------------||
|-2-22222---------|-----------------|-2-22222-3-33333-|-7-77777-6-66666-||

|-----------------|-----------------|-----------------|-----------------|
|-----------------|-----------------|-----------------|-----------------|
|-----------------|-----------------|-----------------|-----------------|
|-4-44444-3-33333-|-6-66666-2-2-2222|-4-44444-3-33333-|-6-66666-7-77777-|

                                                      7/8
|-----------------|-----------------|-----------------|---------------||
|-----------------|-----------------|-----------------|---------------||
|-----------------|-----------------|-----------------|---------------||
|-4-44444-3-33333-|-6-66666-2-2-2222|-4-44444-3-33333-|-7-------------||

 4/4
|-----------------|-----------------|-----------------|-----------------|
|-----------------|-----------------|-----------------|-----------------|
|---------5-55555-|-4-44444-3-33333-|-----------------|-----------------|
|-2-22222---------|-----------------|-2-22222-3-33333-|-7-77777-6-66666-|

|-----------------|-----------------|-----------------|-----------------|
|-----------------|-----------------|-----------------|-----------------|
|---------5-55555-|-4-44444-3-33333-|-----------------|-----------------|
|-2-22222---------|-----------------|-2-22222-3-33333-|-7-------6-------|

|-----------------||
|-----------------||
|-----------------||
|-0---------------||


10: RAINING BLOOD

Tune down 1/2 step (Eb,Ab,Db,Gb)

 178 bpm
|-----------------|-----------------|-----------------|-----------------|
|-----------------|-----------------|-----------------|-----------------|
|-----------------|-----------------|-----------------|-----------------|
|-0-0-0-----------|-----------------|-0-0-0-----------|-----------------|

|-----------------|-----------------|-----------------|-----------------||
|-----------------|-----------------|-----------------|-----------------||
|-----------------|-----------------|-----------------|-----------------||
|-0-0-0-----------|-----------------|-0-0-0-----------|-----------------||

|-----------------|-----------------|-----------------|-----------------|
|-----------------|-----------------|-----------------|---------3-2-----|
|-----------------|-----------------|-----------------|-------4-----3-2-|
|-000-000-000-000-|-000-000-000-000-|-000-000-000-000-|-0-2-4-----------|

|-----------------|-----------------|-----------------|-----------------|
|-----------------|-----------------|-----------------|---------3-2-----|
|-----------------|-----------------|-----------------|-------4-----3-2-|
|-000-000-000-000-|-000-000-000-000-|-000-000-000-000-|-0-2-4-----------|

|-----------------|-----------------|-----------------|-----------------|
|-----------------|-----------------|-----------------|---------3-2-----|
|-----------------|-----------------|-----------------|-------4-----3-2-|
|-000-000-000-000-|-000-000-000-000-|-000-000-000-000-|-0-2-4-----------|

|-----------------|-----------------|-----------------|-----------------||
|-----------------|-----------------|-----------------|---------3-2-----||
|-----------------|-----------------|-----------------|-------4-----3-2-||
|-000-000-000-000-|-000-000-000-000-|-000-000-000-000-|-0-2-4-----------||

 214 bpm
|-----------------|-----------------|-----------------|-----------------|
|-----------------|-----------------|-----------------|-----------------|
|-----------------|-----------------|-----------------|-------------1---|
|-5---6---5---6---|-5---6---5---6---|-5320643053206430|-532064305320--03|

|-----------------|-----------------|-----------------|-----------------|
|-----------------|-----------------|-----------------|-----------------|
|-----------------|-----------------|-----------------|-------------1---|
|-5320643053206430|-532064303---6-03|-5320643053206430|-532064305320--03|

|-----------------|-----------------|-----------------|-----------------|
|-----------------|-----------------|-----------------|-----------------|
|-----------------|-----------------|-----------------|-------------1---|
|-5320643053206430|-532064303---6-03|-5320643053206430|-532064305320--03|

|-----------------|-----------------||
|-----------------|-----------------||
|-----------------|-----------------||
|-5320643053206430|-532064303---6---||

 verse 1
|-----------------|-----------------|-----------------|-----------------|
|-----------------|-----------------|-----------------|-----------------|
|---------3---6---|---------2---5---|---------3---6---|---------2---5---|
|-0-00000---0-----|-0-00000---------|-0-00000---0-----|-0-00000---------|

|-----------------|-----------------|-----------------|-----------------|
|-----------------|-----------------|-----------------|-----------------|
|---------3---6---|---------2---5---|---------3---6---|---------2---5---|
|-0-00000---0-----|-0-00000---------|-0-00000---0-----|-0-00000---------|

|-----------------|-----------------|-----------------|-----------------|
|-----------------|-----------------|-----------------|-----------------|
|---------3---6---|---------2---5---|---------3---6---|---------2---5---|
|-0-00000---0-----|-0-00000---------|-0-00000---0-----|-0-00000---------|

|-----------------|-----------------|-----------------|-----------------||
|-----------------|-----------------|-----------------|-----------------||
|---------3---6---|---------2---5---|---------3---6---|---------2---5---||
|-0-00000---0-----|-0-00000---------|-0-00000---0-----|-0-00000---------||

 188 bpm
|-----------------|-----------------|-----------------|-----------------|
|-----------------|-----------------|-----------------|-----------------|
|----------hpp----|-----------------|-6-6-6-6-6-6-6-6-|-6-6-6-6---------|
|-0-0-0-0-03101---|-0-0-0-0-3-6-5---|-----------------|---------5---5---|

|-----------------|-----------------|-----------------|-----------------||
|-----------------|-----------------|-----------------|-----------------||
|----------hpp----|-----------------|-6-6-6-6-6-6-6-6-|-6-6-6-6---------||
|-0-0-0-0-03101---|-0-0-0-0-3-6-5---|-----------------|---------5---5---||

 bridge
|-----------------|-----------------|-----------------|-----------------|
|-----------------|-----------------|-----------------|-----------------|
|----------hpp----|-----------------|-6-6-6-6-6-6-6-6-|-6-6-6-6---------|
|-0-0-0-0-03101---|-0-0-0-0-3-6-5---|-----------------|---------5---5---|

|-----------------|-----------------|-----------------|-----------------||
|-----------------|-----------------|-----------------|-----------------||
|----------hpp----|-----------------|-6-6-6-6-6-6-6-6-|-6-6-6-6---------||
|-0-0-0-0-03101---|-0-0-0-0-3-6-5---|-----------------|---------5---5---||

 185 bpm
|-----------------|-----------------|-----------------|-----------------|
|-----------------|-----------------|-----------------|-----------------|
|-----------------|-----------------|-----------------|-----------------|
|-0-0-0-----------|-----------------|-0-0-0-----------|-----------------|

|-----------------|-----------------|-----------------|-----------------||
|-----------------|-----------------|-----------------|-----------------||
|-----------------|-----------------|-----------------|-----------------||
|-0-0-0---6-------|-5-------4-------|-0-0-0---6-------|-5-------4-------||

 180 bpm
|-----------------|-----------------|-----------------|-----------------|
|-----------------|-----------------|-----------------|-----------------|
|-----------------|-----------------|-----------------|-----------------|
|-0-0-----0-0-----|-0-0-----0-0-----|-0-0-----0-0-----|-0-0-----0-0-----|

|-----------------|-----------------|-----------------|-----------------||
|-----------------|-----------------|-----------------|-----------------||
|-----------------|-----------------|-----------------|-----------------||
|-0-0-----0-0-----|-0-0-----0-0-----|-0-0-----0-0-----|-0-0-----0-0-----||

|-----------------|-----------------|-----------------|-----------------|
|-----------------|-----------------|-----------------|-----------------|
|-----------------|-----------------|-----------------|-----------------|
|-0-0-----0-0-----|-0-0-----0-0-----|-0-0-----0-0-----|-0-0-----0-0-----|

|-----------------|-----------------|-----------------|-----------------|
|-----------------|-----------------|-----------------|-----------------|
|-----------------|-----------------|-----------------|-----------------|
|-0-0-----0-0-----|-0-0-----0-0-----|-0-0-----0-0-----|-0-0-----0-0-----|

|-----------------|-----------------|-----------------|-----------------||
|-----------------|-----------------|-----------------|-----------------||
|-----------------|-----------------|-----------------|-----------------||
|-0-0-----0-0-----|-0-0-----0-0-----|-0-0-----0-0-----|-0-0-----0-0-----||

 chorus
|-----------------|-----------------|-----------------|-----------------|
|-----------------|-----------------|-----------------|-----------------|
|-----------------|-----------------|-----------------|-----------------|
|-0-0-3-7-0-0-3-6-|-0-0-3-5-0-0-3\2-|-0-0-3-7-0-0-3-6-|-0-0-3-5-0-0-3\2-|

|-----------------|-----------------|-----------------|-----------------||
|-----------------|-----------------|-----------------|-----------------||
|-----------------|-----------------|-----------------|-----------------||
|-0-0-3-7-0-0-3-6-|-0-0-3-5-0-0-3\2-|-0-0-3-7-0-0-3-6-|-0-0-3-5-0-0-3\2-||

                                    2/4       4/4
|-----------------|-----------------|---------|-----------------||
|-----------------|-----------------|---------|-----------------||
|-----------------|-----------------|---------|-----------------||
|-0000000000000000|-0000000000000000|-00000000|-0000000000000000||

 247 bpm
|-----------------|-----------------|-----------------|-----------------|
|-----------------|-----------------|-----------------|-----------------|
|-----------------|-----------------|-----------------|-----------------|
|-0-0-0-0-0-0-7-7-|-6-6-6-6-3-3-3-3-|-0-0-0-0-0-0-7-7-|-6-6-6-6-3-3-3-3-|

|-----------------|-----------------|-----------------|-----------------|
|-----------------|-----------------|-----------------|-----------------|
|-----------------|-----------------|-----------------|-----------------|
|-0-0-0-0-0-0-7-7-|-6-6-6-6-3-3-3-3-|-0-0-0-0-0-0-7-7-|-6-6-6-6-3-3-3-3-|

|-----------------|-----------------|-----------------|-----------------|
|-----------------|-----------------|-----------------|-----------------|
|-----------------|-----------------|-----------------|-----------------|
|-4-4-4-4-4-4-8-8-|-7-7-7-7-7-7-8-8-|-4-4-4-4-4-4-8-8-|-7-7-7-7-7-7-8-8-|

|-----------------|-----------------|-----------------|-----------------|
|-----------------|-----------------|-----------------|-----------------|
|-----------------|-----------------|-----------------|-----------------|
|-0-0-0-0-0-0-7-7-|-6-6-6-6-3-3-3-3-|-0-0-0-0-0-0-7-7-|-6-6-6-6-3-3-3-3-|

|-----------------|-----------------|-----------------|-----------------|
|-----------------|-----------------|-----------------|-----------------|
|-----------------|-----------------|-----------------|-----------------|
|-0-0-0-0-0-0-7-7-|-6-6-6-6-3-3-3-3-|-0-0-0-0-0-0-7-7-|-6-6-6-6-3-3-3-3-|

|-----------------|-----------------|-----------------|-----------------|
|-----------------|-----------------|-----------------|-----------------|
|-----------------|-----------------|-----------------|-----------------|
|-0-0-0-0-0-0-7-7-|-6-6-6-6-3-3-3-3-|-0-0-0-0-0-0-7-7-|-6-6-6-6-3-3-3-3-|

|-----------------|-----------------|-----------------|-----------------|
|-----------------|-----------------|-----------------|-----------------|
|-----------------|-----------------|-----------------|-----------------|
|-0-0-0-0-0-0-7-7-|-6-6-6-6-3-3-3-3-|-0-0-0-0-0-0-7-7-|-6-6-6-6-3-3-3-3-|

|-----------------|-----------------|-----------------|-----------------|
|-----------------|-----------------|-----------------|-----------------|
|-----------------|-----------------|-----------------|-----------------|
|-0-0-0-0-0-0-7-7-|-6-6-6-6-3-3-3-3-|-0-0-0-0-0-0-0-0-|-0-0-0-0-0-0-0-0-|

|-----------------|-----------------||
|-----------------|-----------------||
|-----------------|-----------------||
|-0-0-0-0-0-0-0-0-|-0-0-0-0-0-------||


11: AGGRESSIVE PERFECTOR

Verse Riff

|---------------------------------------------------|
|---------------------------------------------------|
|--------10p9-----------10p9-----------10p9---5---7-|
|0-0-0----------0-0-0----------0-0-0----------------|


Chorus Riff

|-----------------------------------------------------|
|-----------------------------------------------------|
|2---0--2------8---6--8---0--2---0--2--3------8--7--5-|
|-----------------------------------------------------|


Riff A

|----------------------------------------------------------|
|----------------------------------------------------------|
|--------------3------2--------------------3------2------3-|
|5------4--------------------5------4----------------------|


Riff B

|----------------------|
|----------------------|
|2p0h2---0--2----------|
|--------------3--2--3-|


Solo Riff

|--------------------------------|
|--------------------------------|
|--------------------------------|
|5-5-5-5-5-5-5-5-4-4-4-4-4-4-4-4-|

--------------------------------|
--------------------------------|
3-3-3-3-3-3-3-3-2-2-2-2-2-2-2-2-|
--------------------------------|


Riff C

|----------------------------------|
|----------------------------------|
|7-------7-------7-----------------|
|--0-0-0---0-0-0---0-0-0-0-0-0-0-0-|

Riff D

|-------------------------------------------------|
|-------------------------------------------------|
|2--2----2--3--3----3-----------------------------|
|----------------------0--0---0-0-0---0-0---0-0-0-|


Riff D1

|----------------------------------------------|
|----------------------------------------------|
|2--2--2--3--3--3------------------------------|
|------------------0--0---0-0-0---0--0---0-0-0-|


End

|--------------------------------------|
|--------------------------------------|
|2--2--2--3--3--3--3--3--3--3--3--3----|
|------------------------------------2-|

YAY DONE!!!

            
            
Suggest correction
Creating personal tab
Creating personal tab
You can edit any tab online and save it as your Personal.

You can edit, replace or remove any tab part or add personal notes – all changes will be seen only by you.

Personal tabs can be accessed anytime from any device, even offline.
Learn more »
comments
print report bad tab
1 comment total.
0 reply
webbtje 959 Feb 29, 2008 12:29 AM

Really good work. I was gonna hate at first, thinking you'd mis-spelt 'Raining Blood', but tabbing that whole album is quite an achievement.

*hands cookie*

guest
You may want to rate the tab now too:
select rating
Wanna post a correction for this tab? Suggest correction