Oops, an error
Loading. Please wait.

Seasons In The Abyss tab

version 4
version 4
by Slayer
3,589 views 3 this week
2 commentsread comments
1 2 3 4 5
2 more votes to show rating
add to favorites
×
Save as Personal and add changes to this tab that will be seen only by you. Learn more ›
×
You can save this tab as Personal to edit and correct it or add notes. All changes will be seen only by you. Learn more »
launch autoscroll
font size
0
reset
how to read this tab
guitar tuner
backing track
0:00
0:00
edit
Autoscroll
slow
fast
+/-
esc
set tempo
stop
Difficulty
intermediate
Artist: Slayer
Song: Seasons In The Abyss


slayer
seasons in the abyss
tab by jeremy

TUNING:1/2 STEP DOWN

Intro:x2 guitar 1                        Low  x4 (high enter 2nd time)
||-----0---------------------------| |------------------------------------|
||-----0---------------------------| |------------------------------------|
||---------------------------------| |------------------------------------|
||--2--------2---------------3--3--| |--------------------2---------------|
||--2-----2-----1>---<1~~~---3--3--| |-------3--2~~~---2-----1>---<1~~~---|
||--0------------------------1--1--| |-0--1-------------------------------|

High:guitar 2
||---------------------------------------|
||---------------------17----------------|
||----14-17-16~~~---16-----------15~~~---|
||-15------------------------------------|
||---------------------------------------|
||---------------------------------------|

Clean tone riff:x9
||--------0---------------0---------|-------0----------------0-----------0---|
||------0---0-----------0---0-------|-----0---0------------0-----------0-----|
||----3-------3---3---3-------3---3-|---3-------3---3----3-----------3-------|
||--2-----------2---2-----------2---|-3-----------3--------------------------|
||----------------------------------|------------------3-----------2---------|
||----------------------------------|----------------------------------------|


guitar 2
||----------------------------------|---------------------------------------|
||----------------------------------|---------------------------------------|
||----------------------------------|------------------5-----------4--------|
||--2-------------------------------|-3----------------5-----------4--------|
||--2-------------------------------|-3----------------3-----------2--------|
||--0-------------------------------|-1----------------3-----------2--------|


guitar 2
||-----------------------------------------------------|
||-----------------------------------------------------|
||-----------------------------------------------5--4--|
||-4/9------------------------------------10-----5--4--|
||-2/7------------------------------------8------3--2--|
||-----------------------------------------------3--2--|

Main thrash riff:x8.................................  then this
||--------------------------------------------------||----------|
||--------------------------------------------------||----------|
||--------------------------------------------------||--5----4--|
||-----------------------------------2--------1-----||--5----4--|
||-----------------------------------2--------1-----||--3----2--|
||--0--2--3--0--2--3--5--0--2--3--0-----0--0--------||--3----2--|
    pm.............................     pm..

Verse riff:
||----------------------|-----------------------|-----------------------|
||----------------------|-----------------------|-----------------------|
||----------------------|-----------------------|-----------------------|
||-2-------3------------|--2--------------------|--2--------3-----------|
||-2-------1------------|--2-------3------------|--2--------1-----------|
||-0-0-0-0---0--0--0--0-|--0-0-0-0-1-0--0--0--0-|--0-0-0-0------0-0-0-0-|
     pm...   pm........      pm...   pm........      pm...      pm.....

|------------------------|
|------------------------|
|------------------------|
|--2----------------1----|
|--2-------------3--1----|
|--0-0-0-0-0-----3-------|
     pm.....


Chorus:
||--------------------------------|
||--------------------------------|
||-----------------------6--------|
||-2--5--4---5-4---2--3--6---5-4--|
||-2--5--4---5-4---2--3--4---5-4--|
||-0--3--2---3-2---0--1--4---3-2--|

END

            
            
Suggest correction
Creating personal tab
Creating personal tab
You can edit any tab online and save it as your Personal.

You can edit, replace or remove any tab part or add personal notes – all changes will be seen only by you.

Personal tabs can be accessed anytime from any device, even offline.
Learn more »
Give kudos to tab author, rate the tab!
1 2 3 4 5
comments
print report bad tab
2 comments total.
0 reply
robert73 10 Feb 11, 2009 08:40 PM

This is the only DAMN CLOSE tab on here. THE REST ARE WRONG in more ways. Looks good but this part is wrong.

uitar 2
||-----------------------------------------------------|
||-----------------------------------------------------|
||-----------------------------------------------5--4--|
||-4/9------------------------------------10-----5--4--|
||-2/7------------------------------------8------3--2--|
||-----------------------------------------------3--2--|

should be

uitar 2
||-----------------------------------------------------|
||-----------------------------------------------------|
||---9------------------------------------10---------|
||-4/9------------------------------------10-----3--2-|
||-2/7------------------------------------8------3--2--|
||-2-0------------------------------------0------3--2--|

0 reply
Raining hard 98 10 Jan 03, 2012 12:45 AM

robert73 are you having a laugh tab version 3 is better in more ways than one yeah that one might be harder to understand yeah but it better than any other one

guest
Wanna post a correction for this tab? Suggest correction