Oops, an error
Loading. Please wait.

Silent Scream tab

version 3
version 3

Whole song

Interactive

by Slayer
18,034 views 33 this week
1 commentread comment
1 2 3 4 5
x 8
add to favorites
×
Save as Personal and add changes to this tab that will be seen only by you. Learn more ›
×
You can save this tab as Personal to edit and correct it or add notes. All changes will be seen only by you. Learn more »
launch autoscroll
font size
0
reset
how to read this tab
guitar tuner
edit
Autoscroll
slow
fast
+/-
esc
set tempo
stop
SILENT SCREAM
 By SLAYER
 (Music: Hanneman, King  Lyrics: Araya)
 As Performed On SOUTH OF HEAVEN 1988
 AMERICAN Recordings

 Tabbed By Ema

 Tuning Eb


 RIFF 1 INTRO x4

|-----------------------------|
|-----------------------------|
|-----------------------------|
|-9-8-------------------------|
|-7-7-------------------------|
|--------00000000000000000000-|
     x   ....................



 RIFF 2 VERSE x4

|-------------------------------------|-------------------------------------|
|-------------------------------------|-------------------------------------|
|-------------------------------------|-------------------------------------|
|-9-8------9--------8---------10------|-9-8------9--------8-----------------|
|-7-7-------10--------9------8--------|-7-7-------10--------9------810------|
|-----0000-----0000-----0000-----0000-|-----0000-----0000-----0000-----0000-|
      ....     ....     ....     ....       ....     ....     ....     ....


|-------------------------------------|-------------------------------------|
|-------------------------------------|-------------------------------------|
|-------------------------------------|-------------------------------------|
|-9-8------9--------8---------10------|-9-8------9--------8--------7--------|
|-7-7-------10--------9------8--------|-7-7-------10--------9--------8------|
|-----0000-----0000-----0000-----0000-|-----0000-----0000-----0000-----0000-|
      ....     ....     ....     ....       ....     ....     ....     ....



 RIFF 3 CHORUS x2

|KING
|---------------|--------------------------------|
|---------------|--------------------------------|
|---------------|--------------------------------|
|---------------|-2-----0-2-----0-2-----0-2------|
|-9------8------|-2-----0-2-----0-2-----0-2---3--|
|-7------6------|---0-0-----0-0-----0-0-----0-1--|
|                   . .     . .     . .     .
|
|HANNEMAN
|---------------|--------------------------------|
|---------------|--------------------------------|
|11-----10------|--------------------------------|
|-9------8------|-9-----7-9-----7-9-----7-9--10--|
|---------------|-7-----5-7-----5-7-----5-7---8--|
|---------------|---0-0-----0-0-----0-0-----0----|
                    . .     . .     . .     .



 FILL 1

|KING
|--------------------------------|
|--------------------------------|
|--------------------------------|
|-------0-------0-------0--------|
|-2-----0-2-----0-2-----0-2---3--|
|-0-------0-------0-------0---1--|
|  x       x       x       x
|
|HANNEMAN
|--------------------------------|
|--------------------------------|
|--------------------------------|
|-9-----7-9-----7-9-----7-9--10--|
|-7-----5-7-----5-7-----5-7---8--|
|---0-0-----0-0-----0-0-----0----|
    . .     . .     . .     .



 RIFF 2 VERSE x2

 RIFF 3 CHORUS x2

 FILL 1


 SOLO 1 KING

|-21-19-18-------21-19-18-------21-19-18-------21-19-18-------|
|----------21-20----------21-20----------21-20----------21-20-|
|-------------------------------------------------------------|
|-------------------------------------------------------------|
|-------------------------------------------------------------|
|-------------------------------------------------------------|


|-18-21-19-18-----------------------------------------------------------------|
|-------------21-20-18-21-20-18-----------------------------------------------|
|-------------------------------21-19-18-21-19-18-----------------------------|
|-------------------------------------------------20-18-17-20-18-17-----------|
|-------------------------------------------------------------------20-19b\\--|
|-----------------------------------------------------------------------------|


|-----------------------------------------------------------------|
|-----------------------------------------------------------------|
|-------------------------------------------------------15fb\\\\--|
|-------------------------------------14-15-17-14-15-17-----------|
|-------------------13-14-16-13-14-16-----------------------------|
|-12-13-15-12-13-15-----------------------------------------------|
  .. .. .. .. .. .. .. .. .. .. .. ..

|-------------------------------------15-16/18b^^^----|
|-------------------15-17-18-15-17-18-----------------|
|-15-16-18-15-16-18-----------------------------------|
|-----------------------------------------------------|
|-----------------------------------------------------|
|-----------------------------------------------------|

                                                      A.H.
|----------------------------------------------------------|
|-18-14h15-17-14h15-17-14h15-------------------------------|
|----------------------------15-12h13-15-12h13--9b^^--9b^--|
|----------------------------------------------------------|
|----------------------------------------------------------|
|----------------------------------------------------------|
   T        T        T        T        T
                                 A.H.
|--------------------------------------|
|--------------------------------------|
|--------------------------------------|
|-8-9-11-9-8---------------------------|
|------------10-8-7-10-8-7-7h8p7-7b^^--|
|--------------------------------------|




 RIFF 3A x6 UNDER SOLO 1

|--------------------------------|
|--------------------------------|
|--------------------------------|
|-2-----0-2-----0-2-----0-2------|
|-2-----0-2-----0-2-----0-2---3--|
|---0-0-----0-0-----0-0-----0-1--|
    . .     . .     . .     .



 SOLO 2 HANNEMAN

|---------------------|-------------------13-14-16-14-13-------------------|
|---------------------|----------13-15-16----------------16-15-13-16-15-13-|
|-131313131313-14b^^--|-13-14-16-------------------------------------------|
|---------------------|----------------------------------------------------|
|---------------------|----------------------------------------------------|
|---------------------|----------------------------------------------------|


|-----------------|----------12-13-15----------13-14-16----------14-15-17-|
|-----------------|-12-14-15----------13-15-16----------14-16-17----------|
|-16-14-13-14b^^--|-------------------------------------------------------|
|-----------------|-------------------------------------------------------|
|-----------------|-------------------------------------------------------|
|-----------------|-------------------------------------------------------|


|----------15-16-18----------16-17-19----------17-18-20----------18-19-21-|
|-15-17-18----------16-18-19----------17-19-20----------18-20-21----------|
|-------------------------------------------------------------------------|
|-------------------------------------------------------------------------|
|-------------------------------------------------------------------------|
|-------------------------------------------------------------------------|


|----------19-20-22-19b^^^----|----19------18b^-------------|
|-19-21-22----------22b^^^----|-18----18b--21b^/\/\/\/\\----|
|-----------------------------|-----------------------------|
|-----------------------------|-----------------------------|
|-----------------------------|-----------------------------|
|-----------------------------|-----------------------------|


|-------------------------------------------------------------------------|
|-------------------------------------------------------------------------|
|-------------------------------------------------------19-20-22-19-20-22-|
|-------------------------------------18-19-21-18-19-21-------------------|
|-------------------17-18-20-17-18-20-------------------------------------|
|-16-17-19-16-17-19-------------------------------------------------------|
  .. .. .. .. .. ..
                                            N.H. BAR
|--------------------------------------------------------|
|-19-21-22-21-19-----------------------------------------|
|----------------22-20-19-22-20-19----------19///\\\\----|
|----------------------------------21-19-18-19///\\\\----|
|--------------------------------------------------------|
|--------------------------------------------------------|


|----------18-19-21-19-18----------18-19-21-19-18----------18-19-21-19-18-|
|-18-20-21----------------21-20-21----------------21-20-21----------------|
|-------------------------------------------------------------------------|
|-------------------------------------------------------------------------|
|-------------------------------------------------------------------------|
|-------------------------------------------------------------------------|

                                                              N.H.
|----------18-19-21-19-18-------17b^^^------------------------------------|
|-21-20-21----------------21-20-20b^^^----21fb\\--------------------------|
|-------------------------------------------------15b-15b-15b-4/\/\/\/\\--|
|-------------------------------------------------------------------------|
|-------------------------------------------------------------------------|
|-------------------------------------------------------------------------|

   BAR    N.H. BAR     BAR         BAR
|----------------------------------------------|
|------------------------------/24b//\/\/\/\\--|
|-0\\\\\\h9////\/\\\\--------------------------|
|----------------------------------------------|
|----------------------------------------------|
|---------------------0\\\\--------------------|




 RIFF 4 x2 UNDER SOLO 2

|---------------------------------|---------------------------------|
|---------------------------------|---------------------------------|
|---------------------------------|---------------------------------|
|------6--------5----------7------|------6--------5-----------------|
|--------7--------6------5--------|--------7--------6------5-7------|
|-4444-----4444-----4444-----4444-|-4444-----4444-----4444-----4444-|
  ....     ....     ....     ....   ....     ....     ....     ....


|---------------------------------|---------------------------------|
|---------------------------------|---------------------------------|
|---------------------------------|---------------------------------|
|------6--------5----------7------|------6--------5--------4--------|
|--------7--------6------5--------|--------7--------6--------5------|
|-4444-----4444-----4444-----4444-|-4444-----4444-----4444-----4444-|
  ....     ....     ....     ....   ....     ....     ....     ....



 RIFF 3B x4 UNDER SOLO 2

|--------------------------------|
|--------------------------------|
|--------------------------------|
|-9-----7-9-----7-9-----7-9--10--|
|-7-----5-7-----5-7-----5-7---8--|
|---0-0-----0-0-----0-0-----0----|
    . .     . .     . .     .



 FILL 2 UNDER SOLO 2

|--------------|
|--------------|
|--------------|
|-9-----7-9----|
|-7-----5-7----|
|--------------|
   x       x



 RIFF 5 INTERLUDE x4

|---------------------------------------------------------------|
|---------------------------------------------------------------|
|---------------------------------------------------------------|
|-------------3-----------7--6--------------3-------------------|
|-------------1-----------5--4--------------1-------------------|
|-00000000431----00000000-------00000000431----0000000043104310-|
  ...........    ........       ...........    ................



 RIFF 1 INTRO x4

 RIFF 2 VERSE x1

 RIFF 3 CHORUS x2


 FILL 3 END

|KING
|--------------------|
|--------------------|
|--------------------|
|-------0-------0----|
|-2-----0-2-----0-2--|
|-0-------0-------0--|
|  x       x       x
|
|HANNEMAN
|--------------------|
|--------------------|
|--------------------|
|-9-----7-9-----7-9--|
|-7-----5-7-----5-7--|
|---0-0-----0-0------|
    . .     . .    x

            
            
Suggest correction
Creating personal tab
Creating personal tab
You can edit any tab online and save it as your Personal.

You can edit, replace or remove any tab part or add personal notes – all changes will be seen only by you.

Personal tabs can be accessed anytime from any device, even offline.
Learn more »
comments
print report bad tab
1 comment total.
+1 reply
MASTER JiMMY 570 Jun 04, 2008 06:34 AM

awesome

guest
You may want to rate the tab now too:
select rating
Wanna post a correction for this tab? Suggest correction