Oops, an error
Loading. Please wait.

Skeletons Of Society tab

version 3
version 3

Whole song

Interactive

by Slayer
31,896 views 42 this week
1 commentread comment
1 2 3 4 5
x 11
add to favorites
×
Save as Personal and add changes to this tab that will be seen only by you. Learn more ›
×
You can save this tab as Personal to edit and correct it or add notes. All changes will be seen only by you. Learn more »
launch autoscroll
font size
0
reset
how to read this tab
guitar tuner
edit
Autoscroll
slow
fast
+/-
esc
set tempo
stop
Author
----------------------------------------------------------------------------
                             SKELETONS OF SOCIETY - Slayer
----------------------------------------------------------------------------
Tabbed by: James
Email: the.master.ofpuppets@hotmail.com

Tuning: 1/2 STEP ( Eb, Ab, Db, F#, C, Eb)

Drum Intro and then:

e|-------------------------------------------------------------------------|
B|-------------------------------------------------------------------------|
G|-------------------------------------------------------------------------|
D|-------------------------------------------------------------------------|
A|---------------2-----------3--------3-------------2-----------3--------3-|
E|-15\-0-0-0-0---0--0--0--0--1--0--0--1---0-0-0-0---0--0--0--0--1--0--0--1-|
       P.M.................     P.M.      P.M.................     P.M.

e|-------------------------------------------------------------------------|
B|-------------------------------------------------------------------------|
G|-------------------------------------------------------------------------|
D|-------------------------------------------------------------------------|
A|------------2-----------3--------3-------------2-----------3--------3----|
E|--0-0-0-0---0--0--0--0--1--0--0--1---0-0-0-0---0--0--0--0--1--0--0--1----|
    P.M.................     P.M.      P.M.................     P.M.

e|-------------------------------------------------------------------------|
B|-------------------------------------------------------------------------|
G|-------------------------------------------------------------------------|
D|-------------------------------------------------------------------------|
A|------------6-----------7--------7-------------6-----------7--------7----|
E|--4-4-4-4---4--4--4--4--5--4--4--5---4-4-4-4---4--4--4--4--5--4--4--5----|
    P.M.................     P.M.      P.M.................     P.M.

Play this only once in the song:
e|-------------------------------------------------------------------------|
B|-------------------------------------------------------------------------|
G|-------------------------------------------------------------------------|
D|-------------------------------------------------------------------------|
A|------------2-----------3--------3-------------2-------------------------|
E|--0-0-0-0---0--0--0--0--1--0--0--1---0-0-0-0---0-------------------------|
    P.M.................     P.M.      P.M....

Play from the begining again with drums but dont play that stop^^
The begining is all verses but befor you play the first verse do a pick slide which i 
tab but would be something like
e|-------------------------------------------------------------------------|
B|-------------------------------------------------------------------------|
G|-------------------------------------------------------------------------|
D|-------------------------------------------------------------------------|
A|--\\\\\\\\\\\\\\\\\\\\\\\\\\\\\\\\\\\\\\\\\\\\\\\\\\\\\\\\\\\\\\\\\\\\\--|
E|--/////////////////////////////////////////////////////////////////////--|

i dunno just put ur pick in between the strings and slide it to fret 1
at 0:55 play this ontp of the main riff
e|----------------------20/\/\/\/\/\/\/\/\/--/0----------------------------|
B|-------------------------------------------------------------------------|
G|-------------------------------------------------------------------------|
D|-------------------------------------------------------------------------|
A|-------------------------------------------------------------------------|
E|--0~~~~~~/\/\/\/\--------------------------------------------------------|
           Whammy..       Whammmy..........

continue to play the main riff but play this lead ontop at 1:12
e|-------------------------------------------------------------------------|
B|-------------------------------------------------------------------------|
G|--14b(16)-(16)-(16)-(16)r14----------------------------------------------|
D|-------------------------------------------------------------------------|
A|-------------------------------------------------------------------------|
E|-------------------------------------------------------------------------|

then that leads into the chorus which has two parts:
Chorus:
Guitar I:
e|-------------------------------------------------------------------------|
B|-------------------------------------------------------------------------|
G|--10~~~~10\9----8~~~---7~~~--------7^(9)-(9)-----------------------------|
D|----------------------------------------------7h8p7--5-------------------|
A|--------------------------------------------------------7/\/\/\/\/\/\/\--|
E|-------------------------------------------------------------------------|
                                                           Whammy........
Guitar II:
e|-------------------------------------------------------------------------|
B|-------------------------------------------------------------------------|
G|-------------------------------------------------------------------------|
D|-------------------------------------------------------------------------|
A|--8~~~~~8\7-----6~~~---5~~~~----------------2-----------3--------3-------|
E|--6~~~~~6\5-----4~~~---3~~~--------0-0-0-0--0--0--0--0--1--0--0--1-------|
                                     P.M................     P.M.

Guitar I:
e|-------------------------------------------------------------------------|
B|-------------------------------------------------------------------------|
G|-------------------------------------------------------------------------|
D|-------------------------------------------------------------------------|
A|-------------------------------------------------------------------------|
E|-------------------------------------------------------------------------|

Guitar II:
e|-------------------------------------------------------------------------|
B|-------------------------------------------------------------------------|
G|-------------------------------------------------------------------------|
D|-------------------------------------------------------------------------|
A|------------2-----------3--------3----8~~~~~~~8\7----6~~~~~---5----------|
E|--0-0-0-0---0--0--0--0--1--0--0--1----6~~~~~~~6\5----4~~~~~---3----------|
    P.M.................     P.M.

Guitar Solo: Jeff
Guitar II: plays this all through
e|-------------------------------------------------------------------------|
B|-------------------------------------------------------------------------|
G|-------------------------------------------------------------------------|
D|-------------------------------------------------------------------------|
A|---2~~~~~~~~~7--8~~~~~---2~~~~~~~~7---8~~~~~~----------------------------|
E|---0~~~~~~~~~5--6~~~~~---0~~~~~~~~5---6~~~~~~---5--0--1--0--5--0--1--0---|
                                                  P.M...................
Guitar I: Whammy everywhere
e|--14~~~~~~~~~~~/\/\/\/\/\/\/\/\/\/\--------------------------------------|
B|-------------------------------------------------------------------------|
G|--11~~~~~~~~~~~/\/\/\/\/\/\/\/\/\/\--(/13)^15~~~~~~~~~~~~~---------------|
D|-------------------------------------------------------------------------|
A|-------------------------------------------------------------------------|
E|-------------------------------------------------------------------------|

Guitar I:
e|-------------------------------------------------------------------------|
B|---------------------------------------------10h13p10-10h13p10-----------|
G|--13^(16)r13--13^(16)r13--13^(15)--13h15p13---------------------12h13p12-|
D|-------------------------------------------------------------------------|
A|-------------------------------------------------------------------------|
E|-------------------------------------------------------------------------|


Guitar I: This next part is scales which i dont know, but its pretty muffled so just 
it like this realy aplm muted or something
e|-------------------------------------------------------------------------|
B|--------------------------------------------------------15------/\/\/\/--|
G|----------------------------12h13p12h13-------------12--14^(15)r/\/\/\/--|
D|----------------12h14p12h14-------------12h14p12h14----------------------|
A|--12h15p12h15------------------------------------------------------------|
E|-------------------------------------------------------------------------|

e|------------------------------------------------------------13^(15)/\/\--|
B|----------------------------------------12h14p12h14p12h14----------------|
G|----------------------------12h13p12h13----------------------------------|
D|----------------12h14p12h14----------------------------------------------|
A|--12h15p12h15------------------------------------------------------------|
E|-------------------------------------------------------------------------|
                                                              Whammy......

Now play verse 2 which is the same as the intro riff and verse 1
after that play the chorus again and then play this at 2:36

e|-------------------------------------------------------------------------|
B|-------------------------------------------------------------------------|
G|-------------------------------------------------------------------------|
D|------------------------------------------------------3---2----2-2-------|
A|------------------------------------------------------1---0----0-0-------|
E|-0-0-0-0-0-0-0-0-0-0-0-0-0-0-0-0-0-0-0-0-0-0-0-0-0-0---------------------|
   P.M................................................

e|-------------------------------------------------------------------------|
B|-------------------------------------------------------------------------|
G|-------------------------------------------------------------------------|
D|----------------------------3---2----2-2---2-2---------------------------|
A|----------------------------1---0----0-0---0-0---------------------------|
E|-0-0-0-0-0-0-0-0-0-0-0-0-0-----------------------------------------------|
   P.M......................

e|-------------------------------------------------------------------------|
B|-------------------------------------------------------------------------|
G|-------------------------------------------------------------------------|
D|----------------------------3---2----2-2---------------------------------|
A|----------------------------1---0----0-0---------------------------------|
E|-0-0-0-0-0-0-0-0-0-0-0-0-0-----------------------------------------------|
   P.M......................

e|-------------------------------------------------------------------------|
B|-------------------------------------------------------------------------|
G|-------------------------------------------------------------------------|
D|------------------------------------------------------3---2----2-2---2-2-|
A|------------------------------------------------------1---0----0-0---0-0-|
E|-0-0-0-0-0-0-0-0-0-0-0-0-0-0-0-0-0-0-0-0-0-0-0-0-0-0---------------------|
   P.M................................................

Guitar Solo 2: Kerry
Guitar II: plays verse and intro riff
Guitar I:
e|-------------------------------------------------------------------------|
B|-------------------------------------------------------------------------|
G|-------------------------------------------------------------------------|
D|--12^(14)--(14)-(14)-(14)-(14)--(14)--(14)-(14)r12--10-------------------|
A|--------------------------------------------------------12-13-15---------|
E|-------------------------------------------------------------------------|

Guitar I:
e|---------------------------------12-13---15-16--16h17p16----16h17p16-----|
B|---------------------------12-13-------------------------19----------19--|
G|---------------------12-13-----------------------------------------------|
D|---------------12-13-----------------------------------------------------|
A|---------12-13-----------------------------------------------------------|
E|--12-13------------------------------------------------------------------|
    P.M.................................

Guitar I:
e|---19h20p19----19h20p19-----21h22p21--18---14^(16)-14^(16)---14-15-20----|
B|------------22----------22-----------------------------------------------|
G|-------------------------------------------------------------------------|
D|-------------------------------------------------------------------------|
A|-------------------------------------------------------------------------|
E|-------------------------------------------------------------------------|

Guitar I:
e|---19h20p19-------------------------------------------------------12-13--|
B|--------------20-19--17-------------------------------------12-13--------|
G|------------------------------------------------------12-13--------------|
D|------------------------------------------------12-13--------------------|
A|----------------------------11-10~--------12-13--------------------------|
E|------------------------------------12-13--------------------------------|
                                      P.M.................................

Guitar I:
e|---14-15--17--18---18^(20)-----------------------------------------------|
B|-------------------------------------------------------------------------|
G|-------------------------------------------------------------------------|
D|-------------------------------------------------------------------------|
A|-------------------------------------------------------------------------|
E|-------------------------------------------------------------------------|

Guitar Solo 3: played by Jeff
Guitar II: plays this little riff that your all familiar with:
e|-------------------------------------------------------------------------|
B|-------------------------------------------------------------------------|
G|-------------------------------------------------------------------------|
D|-------------------------------------------------------------------------|
A|---2~~~~~~~~~7--8~~~~~---2~~~~~~~~7---8~~~~~~----------------------------|
E|---0~~~~~~~~~5--6~~~~~---0~~~~~~~~5---6~~~~~~---5--0--1--0--5--0--1--0---|
                                                  P.M...................

Guitar I: first note in sync with the last note of solo 2
e|----18^(20)-18^(20)--18^(20)r18-17-15/\/\/\------------------------------|
B|----------------------------------------------13-13--16--13-12-12--11----|
G|-------------------------------------------------------------------------|
D|-------------------------------------------------------------------------|
A|-------------------------------------------------------------------------|
E|-------------------------------------------------------------------------|

Guitar I:
e|-------------------------------------------------------------------------|
B|-11-11--14--11--15-15--14---------12h13p12--------12h13p12------12h13p12-|
G|---------------------------13h16------------13h16----------13h16---------|
D|-------------------------------------------------------------------------|
A|-------------------------------------------------------------------------|
E|-------------------------------------------------------------------------|

Guitar I:
e|----------------------------------------12h13p12-------------------------|
B|--17p16-14h16-13p12------------------------------13p12-------------------|
G|--------------------16p15--13h15p13---------------------13p12------------|
D|--------------------------------------------------------------12h13p12---|
A|-------------------------------------------------------------------------|
E|-------------------------------------------------------------------------|

Guitar I:
e|-------------------------------------------------------------------------|
B|-------------------13p12-------------------------------------------------|
G|-------------12h13-------13p12-------------------------------------------|
D|---12h13p12--------------------12h13--------------------------12h13p12---|
A|-------------------------------------12h13p12--------12h13p12------------|
E|-----------------------------------------------12h13---------------------|

Guitar I:
e|-------------------------------------------------------------------------|
B|---------------------------------------------------------------11p10-----|
G|--12h13p12--15^(17)r15^(17)r/\/\-----11h12p11---11~~~~~~11h12------------|
D|-------------------------------------------------------------------------|
A|-------------------------------------------------------------------------|
E|-------------------------------------------------------------------------|

Guitar I:
e|-------------------------------------------------------------------------|
B|---------------------10h11p10-------------------10h11-------12h13p12-----|
G|--11p10-------10h11-----------11p10-------10h11-------12h13--------------|
D|--------11h12-----------------------11h12--------------------------------|
A|-------------------------------------------------------------------------|
E|-------------------------------------------------------------------------|

Guitar I: 3:33
e|----------------------------------------------------------------15/\/\/\-|
B|---13p12-13p12-14p13-14p13-15p14-15p14-16p15-16p15-16p15-17^(19)---------|
G|-------------------------------------------------------------------------|
D|-------------------------------------------------------------------------|
A|-------------------------------------------------------------------------|
E|-------------------------------------------------------------------------|

Go back and play verse 3 now followed by chorus and finish on this riff:
e|-------------------------------------------------------------------------|
B|-------------------------------------------------------------------------|
G|-------------------------------------------------------------------------|
D|------------------------------------------------------3---2----2-2-------|
A|------------------------------------------------------1---0----0-0-------|
E|-0-0-0-0-0-0-0-0-0-0-0-0-0-0-0-0-0-0-0-0-0-0-0-0-0-0---------------------|
   P.M................................................

e|-------------------------------------------------------------------------|
B|-------------------------------------------------------------------------|
G|-------------------------------------------------------------------------|
D|----------------------------3---2----2-2---2-2---------------------------|
A|----------------------------1---0----0-0---0-0---------------------------|
E|-0-0-0-0-0-0-0-0-0-0-0-0-0-----------------------------------------------|
   P.M......................

e|-------------------------------------------------------------------------|
B|-------------------------------------------------------------------------|
G|-------------------------------------------------------------------------|
D|----------------------------3---2----2-2---------------------------------|
A|----------------------------1---0----0-0---------------------------------|
E|-0-0-0-0-0-0-0-0-0-0-0-0-0-----------------------------------------------|
   P.M......................

e|-------------------------------------------------------------------------|
B|-------------------------------------------------------------------------|
G|-------------------------------------------------------------------------|
D|------------------------------------------------------3---2----2-2---2-2-|
A|------------------------------------------------------1---0----0-0---0-0-|
E|-0-0-0-0-0-0-0-0-0-0-0-0-0-0-0-0-0-0-0-0-0-0-0-0-0-0---------------------|
   P.M................................................

e|-------------------------------------------------------------------------|
B|-------------------------------------------------------------------------|
G|-------------------------------------------------------------------------|
D|------------------------------------------------------3---2----2-2-------|
A|------------------------------------------------------1---0----0-0-------|
E|-0-0-0-0-0-0-0-0-0-0-0-0-0-0-0-0-0-0-0-0-0-0-0-0-0-0---------------------|
   P.M................................................

and at 4:32 play:
e|-------------------------------------------------------------------------|
B|-------------------------------------------------------------------------|
G|-------------------------------------------------------------------------|
D|------------------------------------------3--2-----------------3--2--3-3-|
A|------------------------------------------1--0-----------------1--0--1-1-|
E|-0-0-0-0-0-0-0-0-0-0-0-0-0-0-0-0-0-0-0-0-------5-0-1-0-5-0-1-0-----------|
   P.M....................................

And tahts it, i know Solos are inaccurate and pretty half assed but if its not good then 
it yourself. Vote and Comment

************************************

| \    Slide down
| /    Slide up
| (n)  Ghost note
| ~    Vibrato
| h    Hammer-on
| p    Pull-off

************************************

            
            
Suggest correction
Creating personal tab
Creating personal tab
You can edit any tab online and save it as your Personal.

You can edit, replace or remove any tab part or add personal notes – all changes will be seen only by you.

Personal tabs can be accessed anytime from any device, even offline.
Learn more »
comments
print report bad tab
1 comment total.
0 reply
a ninja 10 Mar 30, 2009 08:29 PM

looks good to me

guest
You may want to rate the tab now too:
select rating
Wanna post a correction for this tab? Suggest correction