Oops, an error
Loading. Please wait.

Supremist tab

version 1
version 1

Whole song

by Slayer
2,347 views 6 this week
1 commentread comment
1 2 3 4 5
x 4
add to favorites
×
Save as Personal and add changes to this tab that will be seen only by you. Learn more ›
×
You can save this tab as Personal to edit and correct it or add notes. All changes will be seen only by you. Learn more »
launch autoscroll
font size
0
reset
how to read this tab
guitar tuner
edit
Autoscroll
slow
fast
+/-
esc
set tempo
stop
Slayer - Supremist
Drop B Tuning

I made sure everything is in the right positions etc Even with the 
solo/s by watching the live video from Download 2007

TABLATURE LEGEND AND BOTTOM OF PAGE

KERRY INTRO 0:01
|------------------------------------------------------------------------|
|------------------------------------------------------------------------|
|------------------------------------------------------------------------|
|----------------------------------999999999999--------------------------|
|---11p8-888888888888-11p8-88-11p8---------------------------------------|
|--------PMPMPMPMPMPM------PM------PMPMPMPMPMPM--------------------------|
         
|------------------------------------------------------------------------|
|------------------------------------------------------------------------|
|------------------------------------------------------------------------|
|------------------------------------------------------------------------|
|---11p8-888888888888-11p8-88-11p8--VERY-FAST-ALMOST-GHOST-NOTES---------|
|--------PMPMPMPMPMPM------PM-------6h7h9-7h8h10-8h9h11-9h10h12----------|
 
CTND       
|------------------------------------------------------------------------|
|------------------------------------------------------------------------|
|------------------------------------------------------------------------|
|----------------------------------999999999999--------------------------|
|---11p8-888888888888-11p8-88-11p8---------------------------------------|
|--------PMPMPMPMPMPM------PM------PMPMPMPMPMPM--------------------------|
               
|------------------------------------------------------------------------|
|------------------------------------------------------------------------|
|----------------------------------THESE-ARE-----------------------------|
|----------------------------------ELEVENS-------------------------------|
|---11p8-888888888888-11p8-88-11p8-111111118888--------------------------|
|----------------------------------------------99998888------------------|
         PMPMPMPMPMPM      PM      PMPMPMPMPMPMPMPMPMPM   
   

JEFF ENTERS 0:10
|------------------------------------------------------------------------|
|------------------------------------------------------------------------|
|------------------------------------------------------------------------|
|-------GRADUAL----------------------------------------------------------|
|---0---DIVE-DOWN--------------------------------------------------------|
|------------------------------------------------------------------------|

INTRO BOTH GUITARS 0:11
|------------------------------------------------------------------------|
|------------------------------------------------------------------------|
|------------------------------------------------------------------------|
|----------------------------------999999999999--------------------------|
|---11p8-888888888888-11p8-88-11p8---------------------------------------|
|--------PMPMPMPMPMPM------PM------PMPMPMPMPMPM--------------------------|
         
|------------------------------------------------------------------------|
|------------------------------------------------------------------------|
|------------------------------------------------------------------------|
|------------------------------------------------------------------------|
|---11p8-888888888888-11p8-88-11p8--VERY-FAST-ALMOST-GHOST-NOTES---------|
|--------PMPMPMPMPMPM------PM-------6h7h9-7h8h10-8h9h11-9h10h12----------|
CTND        
|------------------------------------------------------------------------|
|------------------------------------------------------------------------|
|------------------------------------------------------------------------|
|----------------------------------999999999999--------------------------|
|---11p8-888888888888-11p8-88-11p8---------------------------------------|
|--------PMPMPMPMPMPM------PM------PMPMPMPMPMPM--------------------------|
               
|------------------------------------------------------------------------|
|------------------------------------------------------------------------|
|----------------------------------THESE-ARE-----------------------------|
|----------------------------------ELEVENS-------------------------------|
|---11p8-888888888888-11p8-88-11p8-111111118888--------------------------|
|----------------------------------------------99998888------------------|
         PMPMPMPMPMPM      PM      PMPMPMPMPMPMPMPMPMPM   

   
FIRST VERSE 0:21                                                                
|------------------------------------------------------------------------|
|------------------------------------------------------------------------|
|------------------------------------------------------------------------|
|------------------------------------------------------------------------|
|-------------------------------222222222222-----------------------------|
|---6p3-333333333333-6p3-33-6p3------------------------------------------|
        PMPMPMPMPMPM     PM     PMPMPMPMPMPM
|------------------------------------------------------------------------|
|------------------------------------------------------------------------|
|------------------------------------------------------------------------|
|------------------------------------------------------------------------|
|------------------------------------------------------------------------|
|---6p3-333333333333-6p3-33-6p3-444444444444-----------------------------|
        PMPMPMPMPMPM     PM     PMPMPMPMPMPM
CTND
|------------------------------------------------------------------------|
|------------------------------------------------------------------------|
|------------------------------------------------------------------------|
|------------------------------------------------------------------------|
|-------------------------------222222222222-----------------------------|
|---6p3-333333333333-6p3-33-6p3------------------------------------------|
        PMPMPMPMPMPM     PM     PMPMPMPMPMPM 
|------------------------------------------------------------------------|
|------------------------------------------------------------------------|
|------------------------------------------------------------------------|
|------------------------------------------------------------------------|
|---------------------------------------22221111-------------------------|
|---6p3-333333333333-6p3-33-6p3-66663333---------------------------------|
        PMPMPMPMPMPM            PMPMPMPMPMPMPMPM

CHORUS 0:30 1X
|------------------------------------------------------------------------|
|------------------------------------------------------------------------|
|------------------------------------------------------------------------|
|-------------HOLD------------HOLD------------HOLD------------HOLD-------|
|-----0-1--/5--6------0-1--/5--6------0-1--/5--6------0-1--/5--6---------|
|-----0-1--/5--6------0-1--/5--6------0-1--/5--6------0-1--/5--6---------|



INTRO RIFF AGAIN 0:40
|------------------------------------------------------------------------|
|------------------------------------------------------------------------|
|------------------------------------------------------------------------|
|----------------------------------999999999999--------------------------|
|---11p8-888888888888-11p8-88-11p8---------------------------------------|
|--------PMPMPMPMPMPM------PM------PMPMPMPMPMPM--------------------------|
         
|------------------------------------------------------------------------|
|------------------------------------------------------------------------|
|------------------------------------------------------------------------|
|------------------------------------------------------------------------|
|---11p8-888888888888-11p8-88-11p8--VERY-FAST-ALMOST-GHOST-NOTES---------|
|--------PMPMPMPMPMPM------PM-------6h7h9-7h8h10-8h9h11-9h10h12----------|
        
|------------------------------------------------------------------------|
|------------------------------------------------------------------------|
|------------------------------------------------------------------------|
|----------------------------------999999999999--------------------------|
|---11p8-888888888888-11p8-88-11p8---------------------------------------|
|--------PMPMPMPMPMPM------PM------PMPMPMPMPMPM--------------------------|
               
|------------------------------------------------------------------------|
|------------------------------------------------------------------------|
|----------------------------------THESE-ARE-----------------------------|
|----------------------------------ELEVENS-------------------------------|
|---11p8-888888888888-11p8-88-11p8-111111118888--------------------------|
|----------------------------------------------99998888------------------|
         PMPMPMPMPMPM      PM      PMPMPMPMPMPMPMPMPMPM   

   
SECOND VERSE 0:49                                                                
|------------------------------------------------------------------------|
|------------------------------------------------------------------------|
|------------------------------------------------------------------------|
|------------------------------------------------------------------------|
|-------------------------------222222222222-----------------------------|
|---6p3-333333333333-6p3-33-6p3------------------------------------------|
        PMPMPMPMPMPM     PM     PMPMPMPMPMPM
|------------------------------------------------------------------------|
|------------------------------------------------------------------------|
|------------------------------------------------------------------------|
|------------------------------------------------------------------------|
|------------------------------------------------------------------------|
|---6p3-333333333333-6p3-33-6p3-444444444444-----------------------------|
        PMPMPMPMPMPM     PM     PMPMPMPMPMPM

|------------------------------------------------------------------------|
|------------------------------------------------------------------------|
|------------------------------------------------------------------------|
|------------------------------------------------------------------------|
|-------------------------------222222222222-----------------------------|
|---6p3-333333333333-6p3-33-6p3------------------------------------------|
        PMPMPMPMPMPM     PM     PMPMPMPMPMPM 
|------------------------------------------------------------------------|
|------------------------------------------------------------------------|
|------------------------------------------------------------------------|
|------------------------------------------------------------------------|
|---------------------------------------22221111-------------------------|
|---6p3-333333333333-6p3-33-6p3-66663333---------------------------------|
        PMPMPMPMPMPM            PMPMPMPMPMPMPMPM

2ND CHORUS 0:59  1X
|------------------------------------------------------------------------|
|------------------------------------------------------------------------|
|------------------------------------------------------------------------|
|-------------HOLD------------HOLD------------HOLD------------HOLD-------|
|-----0-1--/5--6------0-1--/5--6------0-1--/5--6------0-1--/5--6---------|
|-----0-1--/5--6------0-1--/5--6------0-1--/5--6------0-1--/5--6---------|

CHORUS VARIATION 1:08  1X
|------------------------------------------------------------------------|
|------------------------------------------------------------------------|
|------------------------------------------------------------------------|
|-------------HOLD-------------HOLD-------------HOLD-------------HOLD----|
|---3-(4)--/8--9-----3-(4)--/8--9-----3-(4)--/8--9-----3-(4)--/8--9------|
|---3-(4)--/8--9-----3-(4)--/8--9-----3-(4)--/8--9-----3-(4)--/8--9------|

1:18  2X
|------------------------------------------------------------------------|
|------------------------------------------------------------------------|
|------------------------------------------------------------------------|
|--------HOLD------HOLD--------HOLD----------HOLD------HOLD--------HOLD--|
|----7-6--3----7-6--3----7-6-3--2--------7-6--3----7-6--3----7-6-3--2----|
|----7-6--3----7-6--3----7-6-3--2--------7-6--3----7-6--3----7-6-3--2----|



INSTRUMENTAL BREAK 1:36  1X
|------------------------------------------------------------------------|
|------------------------------------------------------------------------|
|------------------------------------------------------------------------|
|------------------------------------------------------------------------|
|-------8p5--9p6-8p5-------8p5--9p6-8p5-------8p5--9p6-8p5-------9p6-8~~~|
|-0-0000---00-------000-000---00-------000-000---00-------000-000--------|
CTND  1:46
|------------------------------------------------------------------------|
|------------------------------------------------------------------------|
|------------------------------------------------------------------------|
|-------------------------------------------------------------------HOLD-|
|-------8p5--9p6-8p5-------8p5--9p6-8p5-------8p5--9p6-8p5-------9p6--3--|
|-0-0000---00-------000-000---00-------000-000---00-------000-000-----3--|




FIRST SOLO RYTHM 1:49  2X
|------------------------------------------------------------------------|
|------------------------------------------------------------------------|
|------------------------------------------------------------------------|
|------------------------------------------------------------------------|
|------------------------------------------------------------------------|
|----0-0000-3p0-4p0-3p0---0-0000-3p0-4p0-3p0---0-0000-3p0-4p0-3p0--------|
CTND
|------------------------------------------------------------------------|
|------------------------------------------------------------------------|
|------------------------------------------------------------------------|
|------------------------HOLD--------------------------------------------|
|-------------------------3----------------------------------------------|
|----0-0000-3p0-4p0-3p0---3----------------------------------------------|

1ST RYTHM VARIATION 2:02 3X
|------------------------------------------------------------------------|
|------------------------------------------------------------------------|
|------------------------------------------------------------------------|
|------------------------------------------------------------------------|
|------------------------------------------------------------------------|
|--222222-3222222-3222222-3355556666---222222-3222222-3222222-2255553333-|

2ND RYTHM VARIATION 2:15 2X
|------------------------------------------------------------------------|
|------------------------------------------------------------------------|
|------------------------------------------------------------------------|
|------------------------------------------------------------------------|
|------------------------------------------------------------------------|
|-------2222-3p2222-3p2222-3p2222-3p2222-3p2222-3p2222-3p2222------------|
VARIATION CTND 1x
|------------------------------------------------------------------------|
|------------------------------------------------------------------------|
|------------------------------------------------------------------------|
|------------------MUST-MAINTAIN-CONTROL-OF-THE-WEAK!--------------------|
|-------3--5-------------------------------------------------------------|
|-2222--3--5-------------------------------------------------------------|
       PM PM


KERRY SOLO (W/ WAH) 1:49
|------------------------------------------------------------------------|
|---------------------/18b20-18b20~~~~--/15~~-15h16p15~~~~---------------|
|-/12~~~12h13p12~~~~~----------------------------------------------------|
|------------------------------------------------------------------------|
|------------------------------------------------------------------------|
|------------------------------------------------------------------------|

|----DESCENDING---TRILLING---TOWARDS---NUT-------------------------------|
|--13h15p13-12h14p12-11h13p11-10h12p10-9h11p9-9/1------------------------|
|------------------------------------------------------------------------|
|------------------------------------------------------------------------|
|------------------------------------------------------------------------|
|------------------------------------------------------------------------|
 1:55
|------------------------------------------------------------------------|
|------------------------------------------------------------------------|
|---0*PH-00-3-00-5-00-8-00-7-00-5----3-00-5-00-7-00-12-00-11-00-7--------|
|-Accidental-------------------------------------------------------------|
|--pinch-----------------------------------------------------------------|
|-harmonic---------------------------------------------------------------|

 1:59
|------------------------------------------------------------------------|
|-------------------------------------------------------------/20~~~~----|
|-----3-00-5-00-7-00----7-00-8-00-11-00-14-00-15-00-17-00-19-------------|
|------------------------------------------------------------------------|
|------------------------------------------------------------------------|
|------------------------------------------------------------------------|

|---------------ALL---THESE---NOTES---ARE---TREMOLO---PICKED-------------|
|---------22222222-21/20/19/18/17/16/15/14/13/12/10/9/8/7/6/5/4/3/2------|
|---------21212121-20/19/18/17/16/15/14/13/12/11/9-/8/7/6/5/4/3/2/1------|
|---------THESE-ARE------------------------------------------------------|
|---------22'S-AND----VERY-SIMPLE-JUST-HOLD-THAT-PATTERN-AND-TREM-PICK---|
|---------21'S--------WHILE-SLIDING-DOWN-CHROMATICALLY TOWARDS-THE-NUT---|

2:02
|---------------HOLD-THE-NOTES-----------------<5>/\/\/\/\/\/\/\---------|
|--------------/-10/\/\/\/\/\/\/--------------WHILE----------------------|
|--2*~~~~~~~---/-9-/\/\/\/\/\/\/-------------FLOYD-BAR-------------------|
|-PINCH---------VIBRATO-AND-DIVE-----DIVE----IS-STILL-DOWN---------------|
|-HARMONIC-------WITH-YOUR-FLOYD-----DOWN----PICK-NATURAL----------------|
|--------------------ROSE-------------0-------HARMONIC-------------------|

2:10
|------------------------------------------------------------------------|
|-------------------8-9~~~~~---------------------------------------------|
|--------------9-10-----------7h9p7-6p8h6-5h7p5-4/1-/\/\/\/\/\/\/--------|
|------7*--7-8----------------WHILE-TRILLING-THESE-NOTES-----------------|
|----ACCIDENTAL---------------RAPIDLY-DIP-YOUR-TREMOLO-BAR---------------|
|----HARMONIC------------------------------------------------------------|

2:15
|------------------------------------------------------------------------|
|------------------------------------------------------------------------|
|---4h5-7p5p4-8p6p5-9p7p6-10p8p7-11p9p8-12p10p9-13p11p10--15~~///////----|
|------------------------------------------------------------------------|
|--------SAME-IDEA-TREMOLO-PICK-THE-PATTERN-MOVE-CHROMATICALLY-----------|
|-----------------BUT-TOWARDS-THE-BRIDGE-THIS-TIME-----------------------|

2:19
|------------------------------------------------------------------------|
|---11p9p8-12p0p9-13p11p10-14p12p11-15p13p12-16p14p13-17p15p14-18p16p15--|
|------------------------------------------------------------------------|
|------------------------------------------------------------------------|
|----------SAME-THING-ON-A-DIFFERENT-STRING------------------------------|
|------------------------------------------------------------------------|
CTND
|------------------------------------------------------------------------|
|---19p17p16-20p18p17-21p19p18-22p20p19-23p21p20-24~~////////////////----|
|------------------------------------------------------------------------|
|------------------------------------------------------------------------|
|------------------------------------------------------------------------|
|------------------------------------------------------------------------|


|------------------------------------------------------------------------|
|------------------------------------------------------------------------|
|------------------------------------------------------------------------|
|-------MUST-MAINTAIN-CONTROL-OF-THE-WEAK!!!!!!!!!!!!!!------------------|
|------------------------------------------------------------------------|
|------------------------------------------------------------------------|




SECOND SOLO RYTHM 2:25 15X
|------------------------------------------------------------------------|
|------------------------------------------------------------------------|
|------------------------------------------------------------------------|
|----------HOLD----------------------------------------------------------|
|-----0-0-0-3--1-1-0h1p0-------------------------------------------------|
|-----0-0-0-3--1-1-0h1p0-0-0-0-0-0-0-------------------------------------|
                        PMPMPMPMPMPM
END OF SONG
|------------------------------------------------------------------------|
|------------------------------------------------------------------------|
|------------------------------------------------------------------------|
|----------------------HOLD-UNTIL-FEEDBACK-------------------------------|
|----0-0-0-3--1-1--0h1--0------------------------------------------------|
|----0-0-0-3--1-1--0h1--0------------------------------------------------|


JEFF SOLO 2:25
|-------------------------------------------------------------<5>/\/\/\/-|
|--<5>--BEND-UP-WHOLE-STEP----------------------<12>/\/\/\---------------|
|--<5>--WITH-FLOYD-ROSE-BAR--<12>-DIVE--0-DIVE--<12>/\/\/\--0------------|
|-NATURAL--------------------<12>-DOWN----DOWN-------------DIVE----------|
|HARMONICS--------------------------------FAST-------------DOWN----------|
|----------------------------------------------------------FAST----------|

CTND 4x  2:40
|------------------------------------------------------------------------|
|--PLAY-4X----THERE-IS-A-VERY-DEEP-DELAY-SETTING-ON-JEFFS-GUITAR---------|
|-----------IT-MAKES-IT-SOUND-LIKE-MORE-NOTES-BUT-ITS-ONLY---------------|
|---------------PLAYED-ON THE-5th-STRING---------------------------------|
|--1717171717171717-/1616161616161616-/1313131313131313------------------|
|------------------------------------------------------------------------|

CTND 3:08            3:09                          3:15          3:19
|-------------------BEND-UP-WITH-VIBRATO------DIVE----------DIVE---------|
|---------------------<5>/\/\/\/\/\/----------DOWN--<5>~~~--DOWN---------|
|------<5>-RAISE----------<5>/\/\/\/-----------0---RAISE-----0----<5>----|
|DIVE--THE-BAR-UP---PICK-2ND-STRING-HARMONIC------UP-WHOLE------BEND-UP--|
|DOWN---------------AND-WHILE-STILL-SUSTAINING-----STEP--------WHOLE-STEP|
|-0----------------PICK-3RD-STRING-HARMONIC--------------------HOLD-UNITL|
                                                                FEEDBACK
     

TABLATURE LEGEND
* OR PH    - Pinch harmonic
<> OR NH   - Natural harmonic
/\/\/\/\/  - Floyd rose/whammy vibrato
~~~~~      - vibrato  
P          - Pull-off
H          - Hammer-on
PM         - Palm Mute
()         - Ghost note
/          - Slide   

            
            
Suggest correction
Creating personal tab
Creating personal tab
You can edit any tab online and save it as your Personal.

You can edit, replace or remove any tab part or add personal notes – all changes will be seen only by you.

Personal tabs can be accessed anytime from any device, even offline.
Learn more »
comments
print report bad tab
1 comment total.
0 reply
hurricaneNox 10 Mar 22, 2016 09:23 PM

FUCKING SLAYERRRRRRRRRR!!!!!!!!!!!!!!!!!!!

just found the repeat song button again. this one will be on repeat for a FUCKING WHILEEEEEEEEEEEE

lml

>:D

guest
You may want to rate the tab now too:
select rating
Wanna post a correction for this tab? Suggest correction