Oops, an error
Loading. Please wait.

World Painted Blood bass

version 1
version 1

Whole song

by Slayer
11,274 views 6 this week
no commentswrite comment
1 2 3 4 5
x 4
add to favorites
×
Save as Personal and add changes to this tab that will be seen only by you. Learn more ›
×
You can save this tab as Personal to edit and correct it or add notes. All changes will be seen only by you. Learn more »
launch autoscroll
font size
0
reset
guitar tuner
backing track
0:00
0:00
edit
Autoscroll
slow
fast
+/-
esc
set tempo
stop
Slayer: World Painted Blood

Tabbed by: Big4fan93

Hey guys, this is my first tab, and from looking around at various guitar tabs, it
looks as if it follows the Guitar pretty closely.

Tuning: Half a Step Down: Eb, Ab, Db, Gb.

H = Hammer on
P = Pull Off

Opening: Guitar x 6

Verse: (1:02) x 4

Gb|------------------------------------------------------------------|
Db|------------------------------------------------------------------|
Ab|------------------------------------------------------------------|
Eb|-000-0-0-0-0-000-000-0-0-0-0-000-000-0-0-0-0-0-0-1111111144444444-|

Chorus: (1:22) x 2

Gb|------------------------------------------------------------------|
Db|------------------------------------------------------------------|
Ab|------------------------------------------------------------------|
Eb|-222-2-222-2-222-111-1-111-1-111-222-2-222-2-222-6666666655555555-|

Back to Verse: x 4, then Chorus x 2

Interlude Riff: (2:03) x 3

Gb|-----------------------------------------|
Db|---------------6655555555----------------|
Ab|--5555555777888----------88844444--------|
Eb|-----------------------------------------|

Bridge Riff: (2:19) x 2

Gb|----------------------------------------------------|
Db|----------------------------------------------------|
Ab|--7h8--------7h8---8h10---7h8-7h8--------7p5--------|
Eb|------000000-----0------0---------000000-----011111-|

Gb|----------------------------------------------------|
Db|----------------------------------------------------|
Ab|--7h8--------7h8---8h10---7h8-7h8--------7p5--------|
Eb|------000000-----0------0---------000000-----044444-|

Back to Interlude Riff x 2

Bridge Riff again x 2

Interlude Riff x 2

Backing to Solo : (3:22) x 8 [Obviously not the exact number of 0's]

Gb|----------------------------------------------------|
Db|----------------------------------------------------|
Ab|----------------------------------------------------|
Eb|0000000000000000000000000000000000000000000011114444|

[OPTIONAL: Not sure whether Tom Araya actually does this, but after four repetitions of 
bar, I up each fret by one, adds a little variation]

Gb|----------------------------------------------------|
Db|----------------------------------------------------|
Ab|----------------------------------------------------|
Eb|1111111111111111111111111111111111111111111122225555|

Post Solo Chugging Session:  x 8 (4:09)

Gb|---------------------------------|
Db|------------------------2223300--|
Ab|---------------------------------|
Eb|-0---0-0-----0-0-0---------------|

Straight back into Verse: x 4

Chorus: x 2

Interlude Riff: x 2

Ending: (5:32) x 3 [Interlude but all up one string, and faster]

Gb|-----------------------------------------|
Db|-----------------------------------------|
Ab|---------------6655555555----------------|
Eb|--5555555777888----------88844444--------|

[Note: On third play, dont play the 88844444, go straight into the "End on" bit below]

End on:

Gb|---------|
Db|---------|
Ab|---------|
Eb|-33-22-0-|

            
            
Suggest correction
Creating personal tab
Creating personal tab
You can edit any tab online and save it as your Personal.

You can edit, replace or remove any tab part or add personal notes – all changes will be seen only by you.

Personal tabs can be accessed anytime from any device, even offline.
Learn more »
comments
print report bad tab
guest
You may want to rate the tab now too:
select rating
Wanna post a correction for this tab? Suggest correction