Oops, an error
Loading. Please wait.

World Painted Blood tab

version 3
version 3
by Slayer
76,977 views 60 this week
13 commentsread comments
1 2 3 4 5
x 32
add to favorites
×
Save as Personal and add changes to this tab that will be seen only by you. Learn more ›
×
You can save this tab as Personal to edit and correct it or add notes. All changes will be seen only by you. Learn more »
launch autoscroll
font size
0
reset
how to read this tab
guitar tuner
backing track
0:00
0:00
edit
Autoscroll
slow
fast
+/-
esc
set tempo
stop
---------------------------------------------------------------------------
                         WORLD PAINTED BLOOD - SLAYER
---------------------------------------------------------------------------

Tabbed by: RCAlbright
Email: RonaldCAlbright@gmail.com

Tuning: Eb Ab Db Gb Bb eb

Riff 1 Intro

eb|------------------------------------------|
Bb|------------------------------------------|
Gb|------------------------------------------|
Db|------------------------------------------|
Ab|---7--6-----------------------------------|
Eb|----------7--8--7-5-----------------------|

Riff 2 Verse

eb|------------------------------------------------------------------|
Bb|------------------------------------------------------------------|
Gb|------------------------------------------------------------------|
Db|------------------------------------------------------------------|
Ab|------------------------------------------------------------------|
Eb|-000-0-0-0-0-000-000-0-0-0-0-000-000-0-0-0-0-0-0-1111111144444444-|
pm  ... . . . . ... ... . . . . ... ... . . . . . . ................

Riff 3 Chorus

eb|------------------------------------------------------------------|
Bb|------------------------------------------------------------------|
Gb|------------------------------------------------------------------|
Db|------------------------------------------------------------------|
Ab|------------------------------------------------------------------|
Eb|-333-3-333-3-333-222-2-222-2-222-333-3-333-3-333-6666666655555555-|
pm  ... . ... . ... ... . ... . ... ... . ... . ...

Riff 4 

eb|-----------------------------------------|
Bb|-----------------------------------------|
Gb|-----------------------------------------|
Db|---------------6655555555----------------|
Ab|-75555555777888----------88844444--------|
Eb|-----------------------------------------|

Riff 5

eb|----------------------------------------------------|
Bb|----------------------------------------------------|
Gb|----------------------------------------------------|
Db|----------------------------------------------------|
Ab|--7h8--------7h8---8h10---7h8-7h8--------8///233333-|
Eb|------000000-----0------0---------000000-----011111-|
pm       ......     .      .         ......     ......

Riff 6 (also solo backing)

eb|---------------------------------|
Bb|---------------------------------|
Gb|---------------------------------|
Db|------------------------2223300--|
Ab|-2---2-2-----2-2-2---------------|
Eb|-0---0-0-----0-0-0---------------|
pm  .   . .     . . .      .......



************************************

| b  Bend
| .  Palm mute
| h  Hammer-on
| /  Slide up

************************************

            
            
Suggest correction
Creating personal tab
Creating personal tab
You can edit any tab online and save it as your Personal.

You can edit, replace or remove any tab part or add personal notes – all changes will be seen only by you.

Personal tabs can be accessed anytime from any device, even offline.
Learn more »
comments
print report bad tab
13 comments total. Showing first comments.
-2 reply
idehass 73 Oct 31, 2009 12:34 PM

Riff 3 Chorus

eb|------------------------------------------------------------------|
Bb|------------------------------------------------------------------|
Gb|------------------------------------------------------------------|
Db|------------------------------------------------------------------|
Ab|------------------------------------------------------------------|
Eb|-000-0-000-0-000-000-0-000-0-000-000-0-000-0-000-4444444422222222-|
pm ... . ... . ... ... . ... . ... ... . ... . ...

change it to

Riff 3 Chorus

eb|------------------------------------------------------------------|
Bb|------------------------------------------------------------------|
Gb|------------------------------------------------------------------|
Db|------------------------------------------------------------------|
Ab|------------------------------------------------------------------|
Eb|-222-2-222-2-222-111-1-111-1-111-222-2-222-2-222-5555555555555555-|
pm ... . ... . ... ... . ... . ... ... . ... . ...

0 reply
bslaughter 10 Nov 07, 2009 08:58 AM

this is a great tab, i never thout i could do this song untill i saw this tab, thanks!!!

0 reply
bslaughter 10 Nov 14, 2009 02:31 PM

in riff six i dont think that the d string notes are palm muted

guest
You may want to rate the tab now too:
select rating
Wanna post a correction for this tab? Suggest correction