Oops, an error
Loading. Please wait.

Dragonaut tab

version 1
version 1

Whole song

Interactive

by Sleep
85,006 views 72 this week
9 commentsread comments
1 2 3 4 5
x 13
add to favorites
×
Save as Personal and add changes to this tab that will be seen only by you. Learn more ›
×
You can save this tab as Personal to edit and correct it or add notes. All changes will be seen only by you. Learn more »
launch autoscroll
font size
0
reset
how to read this tab
guitar tuner
backing track
0:00
0:00
edit
Autoscroll
slow
fast
+/-
esc
set tempo
stop
Sleep is a stoner metal group (reminiscent of Black Sabbath)from the 1990's.
This particular number is the lead track on their second full-length "Sleep's
Holy Mountain", released in 1993 on Earache Records.  The guitarist (Matt Pike)
went on to form High on Fire.

-------------------------------------------------------------------------------
                             Dragonaut - Sleep
-------------------------------------------------------------------------------
Tabbed by: The Iron Fist
Email:jdblizzardhc@hotmail.com

Tuning: Drop-D down one whole step

I have been unable to find Sleep tabs anywhere, so I decided to take care of the problem 
myself. I've left out all the palm muting and the solo.
Enjoy!

  [Riff A]
D|---------------------------------------------------------------------------|
A|---------------------------------------------------------------------------|
F|----------3---------------------------------------------3------------------|
C|----3h5-----5-3---3-5------3h5-------3---3-5------3h5-----5-3---3-5--------|
G|----------------5----------------3-5---5-----/8-5-------------5------------|
C|8-5-----5-------------/8-5-----5-------------/8-5-----5--------------------|

                            [Main Riff] [Riff B]                        
D|-------------------------|------------------------------------------------|
A|-------------------------|------------------------------------------------|
F|-------------------------|------------------------------------------------|
C|------3h5--------3---3-5-|------------------------------------------------|
G|/8-5---------3-5---5-----|-2-2-2-2-2--2-0-2-3-2-0-2-2-2-2-2--/8-7-5-------|
C|/8-5------5--------------|-2-2-2-2-2--2-0-2-3-2-0-2-2-2-2-2--/8-7-5-------|

  [Main Riff] (Variation)
D|---------------------------------------------------------------------------|
A|---------------------------------------------------------------------------|
F|---------------------------------------------------------------------------|
C|---------------------------------------------------------------------------|
G|-5p0-2-2-2-0-2-2-0-2-3-2-0-5p0-2-2-5p0-2-/8-7-5----------------------------|
C|-5p0-2-2-2-0-2-2-0-2-3-2-0-5p0-2-2-5p0-2-/8-7-5----------------------------|

  [Riff C]
D|---------------------------------------------------------------------------|
A|---------------------------------------------------------------------------|
F|---------------------------------------------------------------------------|
C|-5/7-7-7~----5/7-7-7~----5/7-7-7~------------------------------------------|
G|-3/5-5-5~----3/5-5-5~----3/5-5-5~----/7-6~-6-5~----------------------------|
C|-----0-0--00-----0-0--00-----0-0--00-/7-6~-6-5~----------------------------|

  [Riff D]
D|---------------------------------------------------------------------------|
A|---------------------------------------------------------------------------|
F|---------------------------------------------------------------------------|
C|-------------------------------3--------------------------------3----------|
G|----5---3---5---3---5-----------5-3-----5---3---5---------5-3-----5-3---3-5|
C|0-0---0---0---0---0---0-5-6-7-------0-0---0---0---0-5-6-7-----5-------5----|

D|---------------------------------------------------------------------------|
A|---------------------------------------------------------------------------|
F|---------------------------------------------------------------------------|
C|----------------------------------------------------------------3----------|
G|----5---3---5---3---5-------------------5---3---5---------5-3-----5-3---3-5|
C|0-0---0---0---0---0---0-5-6-5-3-5-3-0-0---0---0---0-5-6-7-----5-------5----|


************************

| /  slide up
| \  slide down
| h  hammer-on
| p  pull-off
| ~  vibrato
| +  harmonic
| x  Mute note

************************

            
            
Suggest correction
Creating personal tab
Creating personal tab
You can edit any tab online and save it as your Personal.

You can edit, replace or remove any tab part or add personal notes – all changes will be seen only by you.

Personal tabs can be accessed anytime from any device, even offline.
Learn more »
comments
print report bad tab
9 comments total. Showing first comments.
+3 reply
Dopesmoker 10 Mar 03, 2007 07:26 PM

Thanks for this! Now my apartment feels even more like a scene out of that movie Gummo. Some more Sleep or High on Fire tabs please. Please?

0 reply
dodah133 266 Dec 25, 2007 02:02 PM

the verse is wrong but everything else is great

0 reply
messyhairaddict 10 May 01, 2008 03:55 PM

finally some sleep tabs!, i'm gonna see if i'm not to drunk to tab out the solo.

guest
You may want to rate the tab now too:
select rating
Wanna post a correction for this tab? Suggest correction