Oops, an error
Loading. Please wait.

The Clarity tab

version 1
version 1

Whole song

Interactive

by Sleep
1,991 views 3 this week
no commentswrite comment
1 2 3 4 5
x 3
add to favorites
×
Save as Personal and add changes to this tab that will be seen only by you. Learn more ›
×
You can save this tab as Personal to edit and correct it or add notes. All changes will be seen only by you. Learn more »
launch autoscroll
font size
0
reset
how to read this tab
guitar tuner
edit
Autoscroll
slow
fast
+/-
esc
set tempo
stop
***************************************************************************
                             THE CLARITY - Sleep
***************************************************************************
Tabbed by: Golgathor
Tuning: C F A# D# G c

VERSE 1
c |----------------------------------------------------------------|
G |----------------------------------------------------------------|
D#|----------------------------------------------------------------|
A#|-12\--7-9-9-9-/9~~9-9--9-/9~~9-9--9-/9~~9-9--9--9-9-9-9-7~~~~\--|
F |-10\--5-7-7-7-/7~~7-7--7-/7~~7-7--7-/7~~7-7--7--7-7-7-7-5~~~~\--|
C |----------------------------------------------------------------|

c |--------------------------------------------------------|
G |--------------------------------------------------------|
D#|--------------------------------------------------------|
A#|-/9-9--9-/9~~9-9--9-/9~~9-9--9-/9~~9--9-/9~~~~~~~~~4/7--|
F |-/7-7--7-/7~~7-7--7-/7~~7-7--7-/7~~7--7-/7~~~~~~~~~2/5--|
C |--------------------------------------------------------|
From the temple stone
Smokes the lambsbread
Through dream, sleep and in waking

c |||-----------------------------------------------------------|
G |||-----------------------------------------------------------|
D#|||-----------------------------------------------------------|
A#|||-/9-9--9-/9~~9-9--9-/9~~9-9--9-/9~~9-9--9--9-9-9-9-7~~~~\--|
F |||-/7-7--7-/7~~7-7--7-/7~~7-7--7-/7~~7-7--7--7-7-7-7-5~~~~\--|
C |||-----------------------------------------------------------|

(don't play last two notes on 3rd time)
c |--------------------------------------------------------|||
G |--------------------------------------------------------|||
D#|--------------------------------------------------------|||
A#|-/9-9--9-/9~~9-9--9-/9~~9-9--9-/9~~9--9-/9~~~~~~~~~4/7--|||
F |-/7-7--7-/7~~7-7--7-/7~~7-7--7-/7~~7--7-/7~~~~~~~~~2/5--|||
C |--------------------------------------------------------||| 3x
Toward the weed fields
To that which holds the worlds
Walks the Sinsemillian
Refutes death
Remains stoned constantly
The dealer breaks the eclipse
Backpatch
All are stoned thereafter

BREAK
c |||------------------------------------|||
G |||------------------------------------|||
D#|||------------------------------------|||
A#|||-9------------9---------------------|||
F |||-7------------7---------------------|||
C |||------------------------------------||| 3x

c |------------------------------------------------|
G |------------------------------------------------|
D#|------------------------------------------------|
A#|-7-7--7-7--7-7--7-7--7-7--7-/9--9--7-9~~~~~~~~~-|
F |-5-5--5-5--5-5--5-5--5-5--5-/7--7--5-7~~~~~~~~~-|
C |------------------------------------------------|

INTERLUDE
(toggle pick-up switch)
c |||--------------------------------------|
G |||--------------------------------------|
D#|||--------------------------------------|
A#|||-9--------------7--9--------------7---|
F |||-7--------------5--7--------------5---|
C |||--------------------------------------|

(don't play last note on 3rd time)
c |----------------------------------------|||
G |----------------------------------------|||
D#|----------------------------------------|||
A#|-9------7--9------7--9--------------7---|||
F |-7------5--7------5--7--------------5---|||
C |----------------------------------------||| 3x

VERSE 2
c |----------------------------------------------------------------|
G |----------------------------------------------------------------|
D#|----------------------------------------------------------------|
A#|-12\--7-9-9-9-/9~~9-9--9-/9~~9-9--9-/9~~9-9--9--9-9-9-9-7~~~~\--|
F |-10\--5-7-7-7-/7~~7-7--7-/7~~7-7--7-/7~~7-7--7--7-7-7-7-5~~~~\--|
C |----------------------------------------------------------------|

c |--------------------------------------------------------|
G |--------------------------------------------------------|
D#|--------------------------------------------------------|
A#|-/9-9--9-/9~~9-9--9-/9~~9-9--9-/9~~9--9-/9~~~~~~~~~4/7--|
F |-/7-7--7-/7~~7-7--7-/7~~7-7--7-/7~~7--7-/7~~~~~~~~~2/5--|
C |--------------------------------------------------------|
Stoned chariot ascending
Smokes the true believer

c |||-----------------------------------------------------------|
G |||-----------------------------------------------------------|
D#|||-----------------------------------------------------------|
A#|||-/9-9--9-/9~~9-9--9-/9~~9-9--9-/9~~9-9--9--9-9-9-9-7~~~~\--|
F |||-/7-7--7-/7~~7-7--7-/7~~7-7--7-/7~~7-7--7--7-7-7-7-5~~~~\--|
C |||-----------------------------------------------------------|

(don't play last two notes on 3rd time)
c |--------------------------------------------------------|||
G |--------------------------------------------------------|||
D#|--------------------------------------------------------|||
A#|-/9-9--9-/9~~9-9--9-/9~~9-9--9-/9~~9--9-/9~~~~~~~~~4/7--|||
F |-/7-7--7-/7~~7-7--7-/7~~7-7--7-/7~~7--7-/7~~~~~~~~~2/5--|||
C |--------------------------------------------------------||| 3x
Life complete
The dealer is my refuge
Heavy dry weight
Hasheeshian smoked relief
Backpatch
Iommic life complete

BRIDGE
c |-------------------------------------------------------|
G |-------------------------------------------------------|
D#|-------------------------------------------------------|
A#|-12----11/12\11/12-7--9--9~~~\-12---\-7--9~~~~~~~~~~~~-|
F |-10----9-/10\9-/10-5--7--7~~~\-10---\-5--7~~~~~~~~~~~~-|
C |-------------------------------------------------------|

c |-----------------------------------------------------|
G |-----------------------------------------------------|
D#|-----------------------------------------------------|
A#|-12--11/12\11/12-7--/9~~9~~~~7~~~~7--/9~~~~~~2/4-7---|
F |-10--9-/10\9-/10-5--/7~~7~~~~5~~~~5--/7~~~~~~0h2-5---|
C |-----------------------------------------------------|

SOLO
(rhythm section only, check Guitar Pro version for full solo)
c |||---------------------------------------------|
G |||---------------------------------------------|
D#|||---------------------------------------------|
A#|||-/9~~~~~~~~~~~~12--11\--7~~~~~~~~~~~~2/4-7---|
F |||-/7~~~~~~~~~~~~10--9-\--5~~~~~~~~~~~~0h2-5---|
C |||---------------------------------------------|

c |----------------------------------------------|||
G |----------------------------------------------|||
D#|----------------------------------------------|||
A#|-/9~~~~~~~~~~\--2/4-7\--/9~~~~~~~~~~~~2/4-7---|||
F |-/7~~~~~~~~~~\--0h2-5\--/7~~~~~~~~~~~~0h2-5---|||
C |----------------------------------------------||| 6x

MAIN RIFF
c |----------------------------------------------------------------|
G |----------------------------------------------------------------|
D#|----------------------------------------------------------------|
A#|-12\--7-9-9-9-/9~~9-9--9-/9~~9-9--9-/9~~9-9--9--9-9-9-9-7~~~~\--|
F |-10\--5-7-7-7-/7~~7-7--7-/7~~7-7--7-/7~~7-7--7--7-7-7-7-5~~~~\--|
C |----------------------------------------------------------------|

c |--------------------------------------------------------|
G |--------------------------------------------------------|
D#|--------------------------------------------------------|
A#|-/9-9--9-/9~~9-9--9-/9~~9-9--9-/9~~9--9-/9~~~~~~~~~4/7--|
F |-/7-7--7-/7~~7-7--7-/7~~7-7--7-/7~~7--7-/7~~~~~~~~~2/5--|
C |--------------------------------------------------------|

c |||-----------------------------------------------------------|
G |||-----------------------------------------------------------|
D#|||-----------------------------------------------------------|
A#|||-/9-9--9-/9~~9-9--9-/9~~9-9--9-/9~~9-9--9--9-9-9-9-7~~~~\--|
F |||-/7-7--7-/7~~7-7--7-/7~~7-7--7-/7~~7-7--7--7-7-7-7-5~~~~\--|
C |||-----------------------------------------------------------|

c |--------------------------------------------------------|||
G |--------------------------------------------------------|||
D#|--------------------------------------------------------|||
A#|-/9-9--9-/9~~9-9--9-/9~~9-9--9-/9~~9--9-/9~~~~~~~~~4/7--|||
F |-/7-7--7-/7~~7-7--7-/7~~7-7--7-/7~~7--7-/7~~~~~~~~~2/5--|||
C |--------------------------------------------------------||| 3x

OUTRO
(toggle pick-up switch)
c |||--------------------------------------|
G |||--------------------------------------|
D#|||--------------------------------------|
A#|||-9--------------7--9--------------7---|
F |||-7--------------5--7--------------5---|
C |||--------------------------------------|

c |----------------------------------------|||
G |----------------------------------------|||
D#|----------------------------------------|||
A#|-9------7--9------7--9--------------7---|||
F |-7------5--7------5--7--------------5---|||
C |----------------------------------------||| 6x


************************************

| /   slide up
| \   slide down
| //  scrape up
| \\  scrape down
| h   hammer-on
| p   pull-off
| ~   vibrato
| +   harmonic
| x   Mute note
| b   Bend
| pb  Pre-bend
| br  Bend release
| pbr Pre-bend release
| brb Bend release bend

************************************

            
            
Suggest correction
Creating personal tab
Creating personal tab
You can edit any tab online and save it as your Personal.

You can edit, replace or remove any tab part or add personal notes – all changes will be seen only by you.

Personal tabs can be accessed anytime from any device, even offline.
Learn more »
Give kudos to tab author, rate the tab!
1 2 3 4 5
comments
print report bad tab
guest
You may want to rate the tab now too:
select rating
Wanna post a correction for this tab? Suggest correction