Oops, an error
Loading. Please wait.

The Druid tab

version 1
version 1

Whole song

by Sleep
18,737 views 36 this week
3 commentsread comments
1 2 3 4 5
x 9
add to favorites
×
Save as Personal and add changes to this tab that will be seen only by you. Learn more ›
×
You can save this tab as Personal to edit and correct it or add notes. All changes will be seen only by you. Learn more »
launch autoscroll
font size
0
reset
how to read this tab
guitar tuner
edit
Autoscroll
slow
fast
+/-
esc
set tempo
stop
Author
Artist: Sleep
Song: the Druid
Album: Sleep's Holy Mountain
Tuning: Open C
Tempo: Moderate
Distortion: Heavy~Fuzzy

legend:
pm= Palm Muting
v= Vibrato
b= Bend


Riff 1:
1|-------------------------------------------------------------------------|
2|-------------------------------------------------------------------------|
3|-------------------------------------------5--3--------------------------|
4|----7--5--7-----7--7--5--5--7-----7--5--7--5--3-----7--5--7-----7--7--5--|
5|----5--3--5-----5--5--3--3--5-----5--3--5-----------5--3--5-----5--5--3--|
6|-00----------00----------------00----------------00----------00----------|
   pm       v  pm             v  pm             v  pm       v  pm

1|------------------------|
2|------------------------|
3|------------------------|
4|--5------7--5--7--------|
5|--3------5--3--5--5--7--|
6|-----00-----------5--7--|
    v  pm              v

Riff 2:
1|------------------|
2|------------------|
3|------------------|
4|-----5--7----(7)--|
5|--7--3--5----(5)--|
6|--7---------------|
            b   v

Quite frankly, I don't have a clue what he did on the solo. Just make something up. 
With enough distortion nobody will be able to tell the difference anyway.

            
            
Suggest correction
Creating personal tab
Creating personal tab
You can edit any tab online and save it as your Personal.

You can edit, replace or remove any tab part or add personal notes – all changes will be seen only by you.

Personal tabs can be accessed anytime from any device, even offline.
Learn more »
comments
print report bad tab
3 comments total.
0 reply
deadhead0661 10 Apr 11, 2009 09:11 AM

It's in C Standard, and he plays it on the open C the the octave c and b-flat on the seceond and third lowest strings.

0 reply
Jack _Hatte 70 Apr 22, 2009 06:39 PM

Aside from that, do you think I tabbed it correctly?

0 reply
Angel aka alaab 10 May 19, 2009 04:55 PM

it should go from F to F# on the last two notes of riff1

guest
You may want to rate the tab now too:
select rating
Wanna post a correction for this tab? Suggest correction