Oops, an error
Loading. Please wait.

Alone bass

2,874 views 6 this week
1 commentread comment
1 2 3 4 5
x 3
add to favorites
×
Save as Personal and add changes to this tab that will be seen only by you. Learn more ›
×
You can save this tab as Personal to edit and correct it or add notes. All changes will be seen only by you. Learn more »
launch autoscroll
font size
0
reset
guitar tuner
edit
Autoscroll
slow
fast
+/-
esc
set tempo
stop
Author
Tabbed by Drausin

Hey guys,

So this is my first stab at tab. If you think I'm wrong, please offer your ideas for
corrections at the bottom rather than just flaming me. I did my best.

Please rate/comment! Thank you!

INTRO

G|-----------------------------------------|
D|-----------------------------------------|
A|--------------------2222222222222222-----|   X2
D|-44444444-22222222-----------------------|

VERSE

     (....the only time I feel alright...)
G|---------------------------------------------------------------------------------|
D|------------------------------4-2-0----------------------------------------------|
A|------------------------------------4-2------------22-2-----------22222222-------|
D|----------------------------------------2--44-22-00-------44-22-00---------------|

     (Sometimes I sit and wonder...)
G|------------------------------------------------------------------------------|
D|------------------------------------------------------------------------------|
A|------------------------------------------------------------------------------|
D|-4-2/4-0-0-00------4-2/4-0-0-00-----------------------------------------------|

CHORUS (aka INTRO measure x4)

   (I wanna be with you, you, you...)
G|------------------------------------------------------------------------------|
D|------------------------------------------------------------------------------|
A|-----------------22-2-------------------22-2----------------------------------|
D|-44-4-22-2-00-0-------44-4-22-2-00-0------------------------------------------|

   (Tell me what's the point of life...)
G|---------------------------------------------------------------------------------|
D|---------------------------------------------------------------------------------|   X2
A|-----------------22-2-------0-2------------22-2----------------------------------|
D|-44-4-22-2-00-0-------44-4------22-2-00-0----------------------------------------|

CHORUS (aka INTRO measure x4)

    MGK:(..you're the one that can't keep me...)
G|--------------------------------------------------------------------------------|
D|--------------------------------------------------------------------------------|  X3
A|--------------------------------------------------------------------------------|
D|--------------------------------------7-7--6-6--4-4--4-4------------------------|

1/2 CHORUS (aka INTRO measure x4)

CHORUS (aka INTRO measure x4)

   (Could you check my pulse for me...)
G|------------------------------------------------------------------------------|
D|------------------------------------------------------------------------------|
A|------------------------------------------------------------------------------|
D|-4---9-7---9-6--6-------------------------------------------------------------|

            
            
Suggest correction
Creating personal tab
Creating personal tab
You can edit any tab online and save it as your Personal.

You can edit, replace or remove any tab part or add personal notes – all changes will be seen only by you.

Personal tabs can be accessed anytime from any device, even offline.
Learn more »
Give kudos to tab author, rate the tab!
1 2 3 4 5
comments
print report bad tab
1 comment total.
0 reply
Robert2511 321 Dec 14, 2014 12:27 PM

As far as I can tell this tab is pretty spot on, good job mate

guest
You may want to rate the tab now too:
select rating
Wanna post a correction for this tab? Suggest correction