Oops, an error
Loading. Please wait.

Roger Rabbit intro tab

version 1
version 1

Intro

Whole song

Interactive

652 views 33 this week
2 commentsread comments
1 2 3 4 5
x 3
add to favorites
×
Save as Personal and add changes to this tab that will be seen only by you. Learn more ›
×
You can save this tab as Personal to edit and correct it or add notes. All changes will be seen only by you. Learn more »
launch autoscroll
font size
0
reset
how to read this tab
guitar tuner
edit
Autoscroll
slow
fast
+/-
esc
set tempo
stop
Author
Difficulty
intermediate
-------------------------------------------------------------------------------
                             Roger Rabbit - Sleeping with Sirens
-------------------------------------------------------------------------------
Tabbed by: abanana6
E-mail: 7bands7@gmail.com

Tuning: Standard

       .                       .           .                     .
e|-----2-----------------------5---|-------2---------------------5---|
B|---------------------3-----------|---------------------3-----------|
G|---0-----------------------4-----|---0-----------------------4-----|
D|-2-----------------2-----5-------|-2---2-------------2-----5-------|
A|-----------------3---------------|-----------------3---------------|
E|---------------------------------|---------------------------------|


********************

| .  Staccato

********************

            
            
Suggest correction
Creating personal tab
Creating personal tab
You can edit any tab online and save it as your Personal.

You can edit, replace or remove any tab part or add personal notes – all changes will be seen only by you.

Personal tabs can be accessed anytime from any device, even offline.
Learn more »
Give kudos to tab author, rate the tab!
1 2 3 4 5
comments
print report bad tab
2 comments total.
0 reply
Audible Warfare 806 Nov 20, 2014 01:36 PM

Lack of accuracy. Tab incomplete. This is highly unnecessary. 6 versions of the exact same extremely easy song is just ridiculous. You even managed to leave out some notes. Nice.

0 reply
NSpen1 [tm] 16,817 Oct 22, 2017 10:14 PM

Almost all of the other tabs were terrible. This one was probably the best even before I corrected it and added the missing _one_ note only (and changed to intro).

guest
You may want to rate the tab now too:
select rating
Wanna post a correction for this tab? Suggest correction