Oops, an error
Loading. Please wait.

With Ears To See And Eyes To Hear tab

version 6
version 6

Interactive

301 views 1 this week
no commentswrite comment
1 2 3 4 5
2 more votes to show rating
add to favorites
×
Save as Personal and add changes to this tab that will be seen only by you. Learn more ›
×
You can save this tab as Personal to edit and correct it or add notes. All changes will be seen only by you. Learn more »
launch autoscroll
font size
0
reset
how to read this tab
guitar tuner
edit
Autoscroll
slow
fast
+/-
esc
set tempo
stop
Tuning: Drop C# (C# G# C# F# A# D#)

LEAD GUITAR:

Intro:
|-------------------------------------------------------------------------|
|----------------------------------------------------------------------6b-|
|----------------------------------------------------------------------9b-|
|--8-----0-0-0----8-----0-0-0----8----0-0--------------------0------------|
|--8-----0-0-0----8-----0-0-0----8----0-0--------------------0------------|
|--8-----0-0-0----8-----0-0-0----8----0-0--------------------0------------|

|-----------------------------------------------|----------------------------------------------------|
|-----------------------------------------------|----------------------------------------------------|
|-----------------------------------------------|----------------------------------------------------|
|--8-----0-0-0----8-----0-0-0----8----0-0-------|--7h-8p-7-----------------5h----2-------------------|
|--8-----0-0-0----8-----0-0-0----8----0-0-------|--------------8h----5-----------------4-------------|
|--8-----0-0-0----8-----0-0-0----8----0-0-------|----------------------------------------------------|

|----------------------------|
|------------------------(6)-|
|------------------------(9)-|
|--7--8--7-------------------|
|-----------8--5--3--8~------|

|----------------------------------------------------|----------------------------|
|----------------------------------------------------|----------------------------|
|----------------------------------------------------|----------------------------|
|----------------------------------------------------|--7--8--7-------------------|
|--5------------------5--5-8-----7-----8-----7-------|-----------8--5--3--8.------|
|----------------------------------------------------|----------------------------|

|------------------------------------------------|
|------------------------------------------------|
|------------------------------------------------|
|--5-------------5-5-8-----7-----8-----7---------|
|------------------------------------------------|

Verse 1:

(True friends...)
|--10---|--10---|--8----|--12-13---|--10---|--10---|--8----|--12-13---|
|-------|-------|-------|----------|-------|-------|-------|----------|
|-------|-------|-------|----------|-------|-------|-------|----------|
|-------|-------|-------|----------|-------|-------|-------|----------|
|-------|-------|-------|----------|-------|-------|-------|----------|
|-------|-------|-------|----------|-------|-------|-------|----------|



[Listen carefully for the rhythm - they're not on the 1st beat of each bar]
(Liar...)
|------------------------------------------|
|--------------------------------------6---|
|--------------------------------------9B--|
|--0-0-0-----------0-0----------0----------|
|--0-0-0-----------0-0----------0----------|
|--0-0-0-----------0-0----------0----------| x2
   X X X           X X          X


(Forgiveness...)
|---------------------------------|--13------------------------|----------------------------|
|-13/15-------------11----11------|--------11----11----11------|--11----11----6b------------|
|-------14----12-14----14----14---|-----14----14----14----14---|-----14----14-9b------------|
|----------15---------------------|----------------------------|----------------------------|
|---------------------------------|----------------------------|----------------------------|
|---------------------------------|----------------------------|----------------------------|


|----------------------------|--13------------------------|----------------------------|
|--------------11----11------|--------11----11----11------|--11----11----6b------------|
|--14----12-14----14----14---|-----14----14----14----14---|-----14----14-9b------------|
|-----15---------------------|----------------------------|----------------------------|
|----------------------------|----------------------------|----------------------------|
|----------------------------|----------------------------|----------------------------|


                              (You've gone too far...)
|-----------------------------------------|
|--------------------6--------------------|
|--------------------9B-------------------|
|--0-0-0---0------------------------------|
|--0-0-0---0------------------------------|
|--0-0-0---0------------------------------|

Chorus:

|----------------------------|----------------------------|
|----------------------------|----------------------------|
|----------------------------|----------------------------|
|--7--7--7--7--7--7--7--7----|--7--7--7--7--7--7--7--7----|
|----------------------------|----------------------------|
|----------------------------|----------------------------|

|----------------------------|----------------------------|
|----------------------------|----------------------------|
|----------------------------|----------------------------|
|--10-10-10-10-10-10-7--7----|--7--5--5--5--5--5--5--5----|
|----------------------------|----------------------------|
|----------------------------|----------------------------|

|-------------------------------------------|
|-------------------------------------------|
|-------------------------------------------|
|--0-0-0-0--0---0---0---0-0--0--0--0--------|
|--0-0-0-0--0---0---0---0-0--0--0--0--------|
|--0-0-0-0--0---0---0---0-0--0--0--0--------|
   X X X X  X   X   X   X X  X  X  X

|-------------------------------------------|
|-------------------------------------------|
|-------------------------------------------|
|--0-0-0-0--0---0---0---0-0--0--0--0--------|
|--0-0-0-0--0---0---0---0-0--0--0--0--------|
|--0-0-0-0--0---0---0---0-0--0--0--0--------|
   X X X X  X   X   X   X X  X  X  X

REPEAT


Verse 2:

(Falling over...)
|----------------------------|----------------------------|
|--------------------13/-----|--15------------------------|
|-----14---------------------|----------14h15h14----------|
|--15----15-12-14-15---------|--------------------15------|
|----------------------------|----------------------------|
|----------------------------|----------------------------|x 4

(From the place I was...)
|-----------12s13s12---------|-----------12s13s12---------|
|--------13----------13------|--------13----------13------|
|--10h14----------------14---|--10h14----------------14---|
|----------------------------|----------------------------|
|----------------------------|----------------------------|
|----------------------------|----------------------------|x2

(Over...)
|----------------------------|----------------------------|
|--------------------13/-----|--15------------------------|
|-----14---------------------|----------14h15h14----------|
|--15----15-12-14-15---------|--------------------15------|
|----------------------------|----------------------------|
|----------------------------|----------------------------|x 6

Chorus:

|----------------------------|----------------------------|
|----------------------------|----------------------------|
|----------------------------|----------------------------|
|--7--7--7--7--7--7--7--7----|--7--7--7--7--7--7--7--7----|
|----------------------------|----------------------------|
|----------------------------|----------------------------|

|----------------------------|----------------------------|
|----------------------------|----------------------------|
|----------------------------|----------------------------|
|--10-10-10-10-10-10-7--7----|--7--5--5--5--5--5--5--5----|
|----------------------------|----------------------------|
|----------------------------|----------------------------|

|-------------------------------------------|
|-------------------------------------------|
|-------------------------------------------|
|--0-0-0-0--0---0---0---0-0--0--0--0--------|
|--0-0-0-0--0---0---0---0-0--0--0--0--------|
|--0-0-0-0--0---0---0---0-0--0--0--0--------|
   X X X X  X   X   X   X X  X  X  X

|-------------------------------------------|
|-------------------------------------------|
|-------------------------------------------|
|--0-0-0-0--0---0---0---0-0--0--0--0--------|
|--0-0-0-0--0---0---0---0-0--0--0--0--------|
|--0-0-0-0--0---0---0---0-0--0--0--0--------|
   X X X X  X   X   X   X X  X  X  X

REPEAT

Verse 3:

(Some things are better left unsaid...)
|---------------------------------|------------------------------------|
|--15-----------------------------|--15--------------------------------|
|-----------14-------12-----------|-----------10-------12--------------|
|----------------------------12---|----------------------------10------|
|---------------------------------|------------------------------------|
|---------------------------------|------------------------------------|


|----------------------------------|--------17----12-------------------|
|--17-15---------------------------|-----15----------------------------|
|-----------14L--------------------|-----------------------------------|
|----------------------------------|-----------------------------------|
|----------------------------------|-----------------------------------|
|----------------------------------|-----------------------------------|


|-----------------------------------|----------------------------------|
|--15-------------------------------|--15------------------------------|
|-----------14-------12-------------|-----------10-------12------------|
|------------------------------12---|-----------------------------10---|
|-----------------------------------|----------------------------------|
|-----------------------------------|----------------------------------|


|----------------------------------|--------17----12-------------------|
|--17-15---------------------------|-----15----------------------------|
|-----------14L--------------------|-----------------------------------|
|----------------------------------|-----------------------------------|
|----------------------------------|-----------------------------------|
|----------------------------------|-----------------------------------|

REPEAT

       (I know that...)
|------------|
|-----15-----|
|------------|
|------------|
|------------|
|------------|


(...For all my life...)
|--------17-------17---------|--17-------17-------17------|
|-----15-------15-------15---|--------15-------15---------|
|--14-------14-------14------|-----14-------14------------|
|----------------------------|----------------------------|
|----------------------------|----------------------------|
|----------------------------|----------------------------|


|-----------12s13s12---------|-----------12s13s12---------|
|--------13----------13------|--------13----------13------|
|--10h14----------------14---|--10h14----------------14---|
|----------------------------|----------------------------|
|----------------------------|----------------------------|
|----------------------------|----------------------------|

REPEAT

|--------17-------17---------|--17-------17-------17------|-------||
|-----15-------15-------15---|--------15-------15---------|--15---||
|--14-------14-------14------|-----14-------14------------|-------||
|----------------------------|----------------------------|-------||
|----------------------------|----------------------------|-------||
|----------------------------|----------------------------|-------||


RHYTHM GUITAR:

Intro:

|-------------------------------------------------------------------------|
|----------------------------------------------------------------------6b-|
|----------------------------------------------------------------------9b-|
|--8-----0-0-0----8-----0-0-0----8-----0--0------------------0------------|
|--8-----0-0-0----8-----0-0-0----8-----0--0------------------0------------|
|--8-----0-0-0----8-----0-0-0----8-----0--0------------------0------------|x4


|----------------------------|----------------------------|
|--6--6--6--6--6--6--6--6----|--5--5--5--5--5--5--5--5----|
|--7--7--7--7--7--7--7--7----|--5--5--5--5--5--5--5--5----|
|--7--7--7--7--7--7--7--7----|--5--5--5--5--5--5--5--5----|
|--5--5--5--5--5--5--5--5----|--3--3--3--3--3--3--3--3----|
|----------------------------|----------------------------|


(True friends lie underneath...)

|----------------------------|----------------------------|
|--6--6--6--6--6--6--6--6----|--5--5--5--5--5--5--5--5----|
|--7--7--7--7--7--7--7--7----|--5--5--5--5--5--5--5--5----|
|--7--7--7--7--7--7--7--7----|--5--5--5--5--5--5--5--5----|
|--5--5--5--5--5--5--5--5----|--3--3--3--3--3--3--3--3----|
|----------------------------|----------------------------|

|----------------------------|----------------------------|
|--3--3--3--3--3--3--3--3----|--3--3--3--3--2--2--2--2----|
|--3--3--3--3--3--3--3--3----|--3--3--3--3--2--2--2--2----|
|--3--3--3--3--3--3--3--3----|--3--3--3--3--2--2--2--2----|
|--1--1--1--1--1--1--1--1----|--1--1--1--1--0--0--0--0----|
|----------------------------|----------------------------|


[Listen carefully for the rhythm - they're not on the 1st beat of each bar]
(Liar...)
|------------------------------------------|
|--------------------------------------6---|
|--------------------------------------9B--|
|--0-0-0-----------0-0----------0----------|
|--0-0-0-----------0-0----------0----------|
|--0-0-0-----------0-0----------0----------| x4
   X X X           X X          X

                              (You've gone too far...)
|-----------------------------------------|
|--------------------6--------------------|
|--------------------9B-------------------|
|--0-0-0---0------------------------------|
|--0-0-0---0------------------------------|
|--0-0-0---0------------------------------|


Chorus:

(So tell me, how does it feel...)

|--------------------------|--------------------------|
|--------------------------|--------------------------|
|--5--5--5--5--5--5--5--5--|--5--5--5--5--5--5--5--5--|
|--7--7--7--7--7--7--7--7--|--7--7--7--7--7--7--7--7--|
|--8--8--8--8--8--8--8--8--|--8--8--8--8--8--8--8--8--|
|--8--8--8--8--8--8--8--8--|--8--8--8--8--8--8--8--8--|

|--------------------------|--------------------------|
|--------------------------|--------------------------|
|--------------------------|--------------------------|
|-----------7--7--7--3--3--|--3--2--2--2--2--2--2--2--|
|--3--3--3-----------------|--------------------------|
|--------------------------|--------------------------|

|-------------------------------------------|
|-------------------------------------------|
|-------------------------------------------|
|--0-0-0-0--0---0---0---0-0--0--0--0--------|
|--0-0-0-0--0---0---0---0-0--0--0--0--------|
|--0-0-0-0--0---0---0---0-0--0--0--0--------|
   X X X X  X   X   X   X X  X  X  X

|-------------------------------------------|
|-------------------------------------------|
|-------------------------------------------|
|--0-0-0-0--0---0---0---0-0--0--0--0--------|
|--0-0-0-0--0---0---0---0-0--0--0--0--------|
|--0-0-0-0--0---0---0---0-0--0--0--0--------|
   X X X X  X   X   X   X X  X  X  X

REPEAT

Verse 2:

(Falling over...)
|----------------------------|----------------------------|
|-------------13---15--------|----------------------------|
|---14h15-14-------------12--|--14------14h15h14---12-----|
|----------------------------|----------------------------|
|----------------------------|----------------------------|
|----------------------------|----------------------------|x 4


(From the place I was...)
|----------------------------------------|-----------------------------|
|----------------------------------------|-----------------------------|
|----------------------------------------|-----------------------------|
|--12--12--12--12--12--12--12--12--------|--8-8--8-8--10-10--10-10-----|
|--12--12--12--12--12--12--12--12--------|--8-8--8-8--10-10--10-10-----|
|--12--12--12--12--12--12--12--12--------|--8-8--8-8--10-10--10-10-----|


(Over...)
|----------------------------|----------------------------|
|-------------13---15--------|----------------------------|
|---14h15-14-------------12--|--14------14h15h14---12-----|
|----------------------------|----------------------------|
|----------------------------|----------------------------|
|----------------------------|----------------------------|x 6

Chorus:

(So tell me, how does it feel...)

|--------------------------|--------------------------|
|--------------------------|--------------------------|
|--5--5--5--5--5--5--5--5--|--5--5--5--5--5--5--5--5--|
|--7--7--7--7--7--7--7--7--|--7--7--7--7--7--7--7--7--|
|--8--8--8--8--8--8--8--8--|--8--8--8--8--8--8--8--8--|
|--8--8--8--8--8--8--8--8--|--8--8--8--8--8--8--8--8--|

|--------------------------|--------------------------|
|--------------------------|--------------------------|
|--------------------------|--------------------------|
|-----------7--7--7--3--3--|--3--2--2--2--2--2--2--2--|
|--3--3--3-----------------|--------------------------|
|--------------------------|--------------------------|

|-------------------------------------------|
|-------------------------------------------|
|-------------------------------------------|
|--0-0-0-0--0---0---0---0-0--0--0--0--------|
|--0-0-0-0--0---0---0---0-0--0--0--0--------|
|--0-0-0-0--0---0---0---0-0--0--0--0--------|
   X X X X  X   X   X   X X  X  X  X

|-------------------------------------------|
|-------------------------------------------|
|-------------------------------------------|
|--0-0-0-0--0---0---0---0-0--0--0--0--------|
|--0-0-0-0--0---0---0---0-0--0--0--0--------|
|--0-0-0-0--0---0---0---0-0--0--0--0--------|
   X X X X  X   X   X   X X  X  X  X

REPEAT

Verse 3:

(Sometimes things are better left unsaid...)

|----------------------------|--5-----5-----5-----5-------|
|--10----10----10----10------|--5-----5-----5-----5-------|
|--10----10----10----10------|--7-----7-----7-----7-------|
|--7-----7-----7-----7-------|--5-----5-----5-----5-------|
|--8-----8-----8-----8-------|--5-----5-----5-----5-------|
|--7-----7-----7-----7-------|--5-----5-----5-----5-------|


|--5-----5-----5-----5-------|--5-----5-----5-----5-------|
|--6-----6-----6-----6-------|--5-----5-----5-----5-------|
|--7-----7-----7-----7-------|--5-----5-----5-----5-------|
|--7-----7-----7-----7-------|--5-----5-----5-----5-------|
|--5-----5-----5-----5-------|--3-----3-----3-----3-------|
|----------------------------|----------------------------|

REPEAT

(Come down...)

|----------------------------|--5--5--5--5--5--5--5--5----|
|--10-10-10-10-10-10-10-10---|--5--5--5--5--5--5--5--5----|
|--10-10-10-10-10-10-10-10---|--7--7--7--7--7--7--7--7----|
|--7--7--7--7--7--7--7--7----|--5--5--5--5--5--5--5--5----|
|--8--8--8--8--8--8--8--8----|--5--5--5--5--5--5--5--5----|
|--7--7--7--7--7--7--7--7----|--5--5--5--5--5--5--5--5----|


|--5--5--5--5--5--5--5--5----|--5--5--5--5--5--5--5--5----|
|--6--6--6--6--6--6--6--6----|--5--5--5--5--5--5--5--5----|
|--7--7--7--7--7--7--7--7----|--5--5--5--5--5--5--5--5----|
|--7--7--7--7--7--7--7--7----|--5--5--5--5--5--5--5--5----|
|--5--5--5--5--5--5--5--5----|--3--3--3--3--3--3--3--3----|
|----------------------------|----------------------------|

REPEAT

       (I know that...)
|---5---------|
|---5---------|
|---5---------|
|---5---------|
|-- 3---------|
|-------------|


(...for all my life...)

|-------------------------------------------------------|
|-------------------------------------------------------|
|-------------------------------------------------------|
|--12-12-12-12--12---12---12---12-12--12--12--12--------|
|--12-12-12-12--12---12---12---12-12--12--12--12--------|
|--12-12-12-12--12---12---12---12-12--12--12--12--------|
   X  X  X  X   X    X    X    X  X   X   X   X

|-------------------------------------------------------|
|-------------------------------------------------------|
|-------------------------------------------------------|
|--12-12-12-12--12---12---12---12-12--12--12--12--------|
|--12-12-12-12--12---12---12---12-12--12--12--12--------|
|--12-12-12-12--12---12---12---12-12--12--12--12--------|
   X  X  X  X   X    X    X    X  X   X   X   X

|-------------------------------------------|
|-------------------------------------------|
|-------------------------------------------|
|--0-0-0-0--0---0---0---0-0--0--0--0--------|
|--0-0-0-0--0---0---0---0-0--0--0--0--------|
|--0-0-0-0--0---0---0---0-0--0--0--0--------|
   X X X X  X   X   X   X X  X  X  X


|-------------------------------------------|-----||
|-------------------------------------------|-----||
|-------------------------------------------|-----||
|--0-0-0-0--0---0---0---0-0--0--0--0--------|--0--||
|--0-0-0-0--0---0---0---0-0--0--0--0--------|--0--||
|--0-0-0-0--0---0---0---0-0--0--0--0--------|--0--||
   X X X X  X   X   X   X X  X  X  X           X

            
            
Suggest correction
Creating personal tab
Creating personal tab
You can edit any tab online and save it as your Personal.

You can edit, replace or remove any tab part or add personal notes – all changes will be seen only by you.

Personal tabs can be accessed anytime from any device, even offline.
Learn more »
Give kudos to tab author, rate the tab!
1 2 3 4 5
comments
print report bad tab
guest
You may want to rate the tab now too:
select rating
Wanna post a correction for this tab? Suggest correction