Oops, an error
Loading. Please wait.

Nows The Time tab

version 1
version 1

Whole song

Interactive

2,168 views 1 this week
1 commentread comment
1 2 3 4 5
x 4
add to favorites
×
Save as Personal and add changes to this tab that will be seen only by you. Learn more ›
×
You can save this tab as Personal to edit and correct it or add notes. All changes will be seen only by you. Learn more »
launch autoscroll
font size
0
reset
how to read this tab
guitar tuner
edit
Autoscroll
slow
fast
+/-
esc
set tempo
stop
"Now's The Time"
Slick Shoes
Far From Nowhere

Standard Tuning

Intro
Fig 1 - Guitar 1 - 2x
e-------------------------------------------------------------------------
B-------------------------------------------------------------------------
G--7-7--7-7----------------9-9-9-10-10--10-10-----------------------------
D--7-7--7-7-7-7-7-8-8--8-8-9-9-9-10-10--10-10-7-7-8-10-10--10-10--5-5-5---
A--5-5--5-5-7-7-7-8-8--8-8-7-7-7--8--8---8--8-7-7-8-10-10--10-10--5-5-5---
E-----------5-5-5-6-6--6-6--------------------5-5-6--8--8---8--8--3-3-3---
Fig 2 - Guitar 2 - 1x
e-------------------------------------------------------------------------
B------5-5-6-----------5-5-6-------------5-5-6-------------5-5-6----------
G--7-7-------5-5-------------5-5--10-10--------5-5---------------5-5------
D--7-7------------8-8-------------10-10-------------10-10-----------------
A--5-5------------8-8--------------8--8-------------10-10-----------------
E-----------------6-6--------------------------------8--8-----------------

Verse - 3x
  D5               A#5                      F5                  C5
e------------------------------------------------------------------------------------
B------------------------------------------------------------------------------------
G------------------10---10---10---10----10p9-----------------------------------------
D--7---7---7---7------8----8----8----8------10---10---10---10------------------------
A----5---5---5---5-----------------------------8----8----8----8-10---10---10---10----
E------------------------------------------------------------------8----8----8----8--
pm - - - - - - - - -- - -- - -- - -- -      -- - -- - -- - -- - -- - -- - -- - -- -

Pre-Chorus (Gradually lift all palm mutes)
  D5               A#5                      F5                  C5
e----------------------------------------------------------------------------
B----------------------------------------------------------------------------
G------------------10---10---10---10----10p9---------------------------------
D--7---7---7---7------8----8----8----8------10---10---10---10----------------
A----5---5---5---5-----------------------------8----8----8----8-10-10-10-10--
E----------------------------------------------------------------8--8--8--8--
pm - - - - - - - - -- - -- - -- - -- -      -- - -- - -- - -- - 

Chorus
Fig 1 & Fig 2 - 2x

Verse 2
   D5                A#5                     F5                C5
e--------------------------------------------------------------------------------
B--------------------------------------------------------------------------------
G--7-7-7-7-7-7-7-9-9-10-10-10-10-10-10-10-12-12-12-12-12-12-12-5-5-5-5-10-10-9-5-
D--x-x-x-x-x-x-x-x-x--x--x--x--x--x--x--x--x--x--x--x--x--x--x-x-x-x-x--x--x-x-x-
A--5-5-5-5-5-5-5-7-7--8--8--8--8--8--8--8-10-10-10-10-10-10-10-3-3-3-3--8--8-7-3-
E--------------------------------------------------------------------------------

   D5            A#5               F5                 C5
e----------------------------------------------------------------------
B----------------------------------------------------------------------
G--7-7--7-7---7-------------------10-10--10-10---10--------------------
D--7-7--7-7---7--8-8--8-8---------10-10--10-10---10--10-10--10-10------
A--5-5--5-5---5--8-8--8-8----------8--8---8--8----8--10-10--10-10------
E----------------6-6--6-6-----------------------------8--8---8--8------

   D5            A#5               F5                 C5
e----------------------------------------------------------------------
B----------------------------------------------------------------------
G--7-7--7-7---7-------------------10-10--10-10---10--------------------
D--7-7--7-7---7--8-8--8-8---------10-10--10-10---10--10-10--10-10------
A--5-5--5-5---5--8-8--8-8----------8--8---8--8----8--10-10--10-10------
E----------------6-6--6-6-----------------------------8--8---8--8------
pm                                                      -  -   -  -


Pre-Chorus 2
  Guitar 1   Guitar 2
e----------|----------
B----------|----------
G--10-9~---|----------
D----------|---3-2~---
A----------|----------
E----------|----------

Chorus
Fig 1 & Fig 2 - 2x

Bridge (VERY Sketchy)
e------|----------------------------------------
B------|----------------------------------------
G--10--|----9--10-10---9--5--7--5---5--7--7--5--
D--10--|---10--10-10--10--3--3--3---3--3--3--3--
A------|----------------------------------------
E------|----------------------------------------

Fill - Guitar 2 - 2nd time
e------------
B----6---5~--
G--5---5-----
D------------
A------------
E------------

Guitar 1 - 3x                                                        2x
e----------------------------------------------|---------------------
B----------------------------------------------|---------------------
G-------10----9-10-9---------10----12-10-9-10--|--9-9-9-10-10-10-10--
D----10----10--------10---10----10-------------|---------------------
A--8--------------------8----------------------|---------------------
E----------------------------------------------|---------------------
pm - -- -- -- - -- - -- - -- -- -- -- -- - --     - - - -- -- -- --

Guitar 2 - 3x                                                        2x
e----------------------------------------------|---------------------
B----------------------------------------------|---------------------
G--10--10--10--10--10--10--10--10--12-10--10---|--10-10-10-10-10-10--
D--10--10--10--10--10--10--10--10--10-10--10---|--10-10-10-10-10-10--
A----------------------------------------------|---------------------
E----------------------------------------------|---------------------
pm --  --  --  --  --  --  --  --  -- --  --      --  --  --  --  --

Outro
Fig 2 - 1x

Chorus
Fig 1 - 3x
Fig 2 - 3x

END ON D5

            
            
Suggest correction
Creating personal tab
Creating personal tab
You can edit any tab online and save it as your Personal.

You can edit, replace or remove any tab part or add personal notes – all changes will be seen only by you.

Personal tabs can be accessed anytime from any device, even offline.
Learn more »
comments
print report bad tab
1 comment total.
0 reply
senses_fail_fan 10 Apr 15, 2004 08:00 PM

for the second guitar part try playing this. it has a lot of different note in it, but this sounds tons better. and the bridge part that you sure of, i am working on that. other than that, the tab is basically perfect.
e----------------------------------------------------------------------------------------
B--------6-5-6-----------6-5-6-----------------6-5-6-------------6-5-6----------
G--7-7---------5-3---------------5-3--10-10---------5-3-----------------3-5---
D--7-7--------------8-8----------------10-10---------------10-10----------------
A--5-5--------------8-8------------------8--8----------------10-10----------------
E---------------------6-6-----------------------------------------8--8-----------------

guest
Wanna post a correction for this tab? Suggest correction