Oops, an error
Loading. Please wait.

Blood Of My Blood bass

1,937 views 3 this week
1 commentread comment
1 2 3 4 5
1 last vote to show rating
add to favorites
×
Save as Personal and add changes to this tab that will be seen only by you. Learn more ›
×
You can save this tab as Personal to edit and correct it or add notes. All changes will be seen only by you. Learn more »
launch autoscroll
font size
0
reset
guitar tuner
edit
Autoscroll
slow
fast
+/-
esc
set tempo
stop
Author
Difficulty
-------------------------------------------------------------------------------
		     BLOOD OF MY BLOOD - Slightly Stoopid
-------------------------------------------------------------------------------

Tabbed By : Tom Murdock	
e-mail: t.murdock@live.com

Intro
G|-789-------------------11-11-11-|
D|----9--789----567789------------|
A|----------10---------9----------|
E|--------------------------------|

Main riff, repeated a lot. The second bar is the fill that's played a few times in the song.
G|--------------------------|-789---------|
D|--------------------------|----9--789-5-|
A|-5--7----------------5--7-|-------------|
E|---------------3--5-------|-------------|

Bridge
G|----------------------------789---------|
D|-------------------------------9--789-5-|
A|-5--7----------------5--7---------------|
E|--------3-5-5-3-5-5---------------------|

G|----------------------------9p7--7p5--5p3--------|
D|-------------------------------9----7----5--7p5--|
A|-5--7----------------5--7----------------------7-|
E|--------3-5-5-3-5-5------------------------------|


G|-----------------------------------------------|
D|-------77-9-7-55-7-5---------------------------|
A|-5--7---------------7--------5-3-5-------5-3-5-|
E|-----------------------3--5--------5-3-5-------|

G|-----------------------------------------------|
D|-------77-9-7-55-7-5---------------------------|
A|-5--7---------------7--------5-3-5-------5-3-5-|
E|-----------------------3--5--------5-3-5-------|


And that's the song! Enjoy.



| /  slide up
| \  slide down
| h  hammer-on
| p  pull-off
| ~  vibrato
| +  harmonic
| x  Mute note
===============================================================================

            
            
Suggest correction
Creating personal tab
Creating personal tab
You can edit any tab online and save it as your Personal.

You can edit, replace or remove any tab part or add personal notes – all changes will be seen only by you.

Personal tabs can be accessed anytime from any device, even offline.
Learn more »
Give kudos to tab author, rate the tab!
1 2 3 4 5
comments
print report bad tab
1 comment total.
0 reply
myerbe 82 Mar 26, 2015 07:44 PM

second half of intro is wrong

guest
You may want to rate the tab now too:
select rating
Wanna post a correction for this tab? Suggest correction