Oops, an error
Loading. Please wait.

Fat Spliffs bass

version 1
version 1

Whole song

4,067 views 1 this week
2 commentsread comments
1 2 3 4 5
x 3
add to favorites
×
Save as Personal and add changes to this tab that will be seen only by you. Learn more ›
×
You can save this tab as Personal to edit and correct it or add notes. All changes will be seen only by you. Learn more »
launch autoscroll
font size
0
reset
guitar tuner
edit
Autoscroll
slow
fast
+/-
esc
set tempo
stop
Author
Intro
|--------------------------| 
|------------7-------------|  x4
|-4-4---4-4---4-4---4-4--7-|
|----5-5---5-----5-5---5---|

|-----------------------|
|-----------------------| x8
|----------4-7-7-7------|
|-5-5-5-5-5-------7-7-5-|

Verse
|--------------------------| 
|------------7-------------|  x4
|-4-4---4-4---4-4---4-4--7-|
|----5-5---5-----5-5---5---|

Chorus
|-----------------------|
|-----------------------| x8
|----------4-7-7-7------|
|-5-5-5-5-5-------7-7-5-|



            
            
Suggest correction
Creating personal tab
Creating personal tab
You can edit any tab online and save it as your Personal.

You can edit, replace or remove any tab part or add personal notes – all changes will be seen only by you.

Personal tabs can be accessed anytime from any device, even offline.
Learn more »
Give kudos to tab author, rate the tab!
1 2 3 4 5
comments
print report bad tab
2 comments total.
0 reply
O-52-A-50-R 946 Jun 07, 2008 06:19 PM

Not accurate at all I'm afraid. The bass is the counter-melody played with the guitar part. 2 stars from me.

0 reply
justint23 133 Oct 09, 2009 11:34 AM

just doesnt sound anything like the song

guest
You may want to rate the tab now too:
select rating
Wanna post a correction for this tab? Suggest correction