Oops, an error
Loading. Please wait.

If This World Were Mine tab

version 1
version 1

Whole song

10,599 views 3 this week
3 commentsread comments
1 2 3 4 5
x 5
add to favorites
×
Save as Personal and add changes to this tab that will be seen only by you. Learn more ›
×
You can save this tab as Personal to edit and correct it or add notes. All changes will be seen only by you. Learn more »
launch autoscroll
font size
0
reset
how to read this tab
guitar tuner
edit
Autoscroll
slow
fast
+/-
esc
set tempo
stop
Author
Difficulty
Slightly Stoopid - If This World Were Mine

Tabbed By T Nos

INTRO:

E|-----------------------------------------------------------------------------|
B|-----------------------------------------------------------------------------|
G|-----------------------------------------------------------------------------|
D|-----------------------------------------6-5---------------------------------|
A|-------------6-5---------------------33--------33----------------------------|
E|---/18---33-------33-----------/18-------------------------------------------|


E|-----------------------------------------------------------------------------|
B|-----------------------------------------------------------------------------|
G|-----------------------------------------------------------------------------|
D|--------------------------------------------6-5---------6-5------------------|
A|-------------6-5-----------------------33----------333-----------------------|
E|---/18---33-------33------------/18------------------------------------------|


STRUM PATTERN - JUST LISTEN FOR RHYTHM

E|----3-----|     E|----3----|
B|----3-----|     B|----4----|
G|----3-----|     G|----5----|
D|----5-----|     D|----5----|
A|----5-----|     A|----3----|
E|----3-----|     E|---------|

THAT'S BASICALLY ABOUT IT.....

ANY IDEAS JUST LET ME KNOW, THANKS


            
            
Suggest correction
Creating personal tab
Creating personal tab
You can edit any tab online and save it as your Personal.

You can edit, replace or remove any tab part or add personal notes – all changes will be seen only by you.

Personal tabs can be accessed anytime from any device, even offline.
Learn more »
comments
print report bad tab
3 comments total.
+2 reply
AXmichigan 191 May 31, 2007 12:05 AM

non accurate

0 reply
TubularxTyler 10 Sep 13, 2007 03:42 PM

slob it. yes it is.

-1 reply
fireshot420 93 Nov 14, 2007 01:38 PM

Oh I'm sorry I forgot to put the 3 at the way end on string A to make it "accurate" AXmichigan you douche****. If you
actually listen to their live version of this song you'll know what I'm talking about, stoopid rookie

guest
You may want to rate the tab now too:
select rating
Wanna post a correction for this tab? Suggest correction