Oops, an error
Loading. Please wait.

Living Dread bass

1,268 views 1 this week
1 commentread comment
1 2 3 4 5
x 3
add to favorites
×
Save as Personal and add changes to this tab that will be seen only by you. Learn more ›
×
You can save this tab as Personal to edit and correct it or add notes. All changes will be seen only by you. Learn more »
launch autoscroll
font size
0
reset
guitar tuner
edit
Autoscroll
slow
fast
+/-
esc
set tempo
stop
Author
Difficulty
Verse
|------------------|-------------------|
|-----77/5---------|---5/6/5---565-----|
|----------7-5-----|---------7---------|
|--5---------------|-------------------|

|------------------|-------------------|
|-----77/5---------|-------5/7---------|
|----------7-55----|-66-77-------------|
|--5---------------|-------------------|

|------------------|-------------------|
|-----77/5---------|---5/6/5---565-----|
|----------7-5-----|---------7---------|
|--5---------------|-------------------|

|------------------|-------------------|
|-----77/5---------|-------5/7---------|
|----------7-55----|-66-77-------------|
|--5---------------|-------------------|

|------------------|-------------------|
|-----77/5---------|---5/6/5---565-----|
|----------7-5-----|---------7---------|
|--5---------------|-------------------|

|------------------|---------5-6-7-----|
|-----77/5---------|-----5-7-----------|
|----------7-5-----|---7---------------|
|--5---------------|-------------------|


chorus:
|------------------|------------9977---|
|------------------|---457--457-----987|
|------------------|--5----5-----------|
|---5-5-55--2222222|-------------------|
repeat 4x

Bridge
|-------------------|
|-------------------|
|-----4-4-----5----4|
|-5-5-----2-2---3-5-|
repeat 4x

            
            
Suggest correction
Creating personal tab
Creating personal tab
You can edit any tab online and save it as your Personal.

You can edit, replace or remove any tab part or add personal notes – all changes will be seen only by you.

Personal tabs can be accessed anytime from any device, even offline.
Learn more »
Give kudos to tab author, rate the tab!
1 2 3 4 5
comments
print report bad tab
1 comment total.
0 reply
rufiodies 53 Apr 05, 2015 12:20 AM

I know its not perfect but I hear something more like this, I can never get the ending right though
Theres a bunch of variations but they all kinda use the same "stoopid" fills
-----------------------|
--7-7p5----4p5p4---454-|
--------7-5-------5----|
-5---------------------|

----------------------|
--7-7p5-----4-4-5-77--|
-------7-5-5-5--------|
-5--------------------|
----------------------|
--7-7p5-----4p5p4-457-|
-------7-5-------5----|
-5--------------------|

Then the chorus part is right except I think he does a little fill thingy for the 2nd fret and the last part is off a bit
---------------------------------99-77-66---
-----------------------457--457-----------99
-----------1p2p1-124--5----5----------------
-5-55-55--2-----2---------------------------

and I always heard some dead notes maybe in the bridge? plus another stoopid fill.
-------------------|
---------------457-|
---X-4-44--x-5-----|
-5--------2--------|

I kinda have a bad habit of playing dead notes to keep time so maybe the dead notes are just rests.

guest
You may want to rate the tab now too:
select rating
Wanna post a correction for this tab? Suggest correction