Oops, an error
Loading. Please wait.

Sweet Honey tab

version 3
version 3

Whole song

17,000 views 6 this week
no commentswrite comment
1 2 3 4 5
x 5
add to favorites
×
Save as Personal and add changes to this tab that will be seen only by you. Learn more ›
×
You can save this tab as Personal to edit and correct it or add notes. All changes will be seen only by you. Learn more »
launch autoscroll
font size
0
reset
how to read this tab
guitar tuner
edit
Autoscroll
slow
fast
+/-
esc
set tempo
stop
Author
-------------------------------------------------------------------------------
                       Sweet Honey – Slightly Stoopid
-------------------------------------------------------------------------------
Tabbed by: JR Spencer
Email: JSpencer035@yahoo.com

Tuning: Standard (EADGBe)

Heres the intro. Listen for the rhythm, its pretty basic…

    D                      G
                     x2                   x2
e|--2------3--2--0h2-------3------5--3--3------------------------------------|
B|--3------3--3--3---------3------3—-3—-3------------------------------------|
G|--2------2--2--2---------0------0--0--0------------------------------------|
D|--0------0--0--0---------0------0--0--0------------------------------------|
A|-------------------------2------2--2--2------------------------------------|
E|-------------------------3------3--3--3------------------------------------|

Meanwhile…

e|---------------------------------------------------------------------------|
B|-10/12-10-----------10/12-10-----------------------------------------------|
G|----------11-9----9----------11-9----9-9h11-9------------------------------|
D|---------------12-----------------12----------12---------------------------|
A|---------------------------------------------------------------------------|
E|---------------------------------------------------------------------------|

e|-------10-------10-------10-------10h12p10---------------------------------|
B|-10h12----10h12----10h12----10h12------------------------------------------|
G|---------------------------------------------------------------------------|
D|---------------------------------------------------------------------------|
A|---------------------------------------------------------------------------|
E|---------------------------------------------------------------------------|


Theres no guitar during the verse, but theres a key board playing during the chorus. If 
playing a clean electric,
you can finger pick this to make it sound the same:

   D                       G

e|-5--5--5--5--5--5--5--5--3--3--3--3--3--3--3--3----------------------------|
B|-7--7--7--7--7--7--7--7--3--3--3--3--3--3--3--3----------------------------|
G|-7--7--7--7--7--7--7--7--4--4--4--4--4--4--4--4----------------------------|
D|---------------------------------------------------------------------------|
A|---------------------------------------------------------------------------|
E|---------------------------------------------------------------------------|


After the chorus, you play the intro again, except the second guitar plays this instead:

e|---------------------------------------------------------------------------|
B|-10/12-10-----------10/12-10-----------------------------------------------|
G|----------11-9----9----------11-9----9-9h11-9------------------------------|
D|---------------12-----------------12----------12---------------------------|
A|---------------------------------------------------------------------------|
E|---------------------------------------------------------------------------|

e|---------------------------------------------------------------------------|
B|---------------------------------------------------------------------------|
G|-9h11-9-9h11---------------------------------------------------------------|
D|---------------------------------------------------------------------------|
A|---------------------------------------------------------------------------|
E|---------------------------------------------------------------------------|


Again, you can finger pick that one part for the chorus.

Next, the song goes into the bridge, which is the same as the outtro. Listen for the rhythm:
                                                      x2
e|-2--3--5--7-5-3—2--3--5--7-5-3--7-8-10--7-8-10-8-7-------------------------|
B|-3--3--5--7-5-3-3--3--5--7-5-3--7-8-10--7-8-10-8-7-------------------------|
G|-2--------------2----------------------------------------------------------|
D|---------------------------------------------------------------------------|
A|---------------------------------------------------------------------------|
E|---------------------------------------------------------------------------|

Still working on the solo, check back soon for an update.


| /  slide up
| \  slide down
| h  hammer-on
| p  pull-off
| ~  vibrato
| +  harmonic
| x  Mute note
===============================================================================

            
            
Suggest correction
Creating personal tab
Creating personal tab
You can edit any tab online and save it as your Personal.

You can edit, replace or remove any tab part or add personal notes – all changes will be seen only by you.

Personal tabs can be accessed anytime from any device, even offline.
Learn more »
comments
print report bad tab
guest
You may want to rate the tab now too:
select rating
Wanna post a correction for this tab? Suggest correction