Oops, an error
Loading. Please wait.

Thinkin Bout Cops tab

version 2
version 2

Whole song

3,685 views 1 this week
no commentswrite comment
1 2 3 4 5
3 more votes to show rating
add to favorites
×
Save as Personal and add changes to this tab that will be seen only by you. Learn more ›
×
You can save this tab as Personal to edit and correct it or add notes. All changes will be seen only by you. Learn more »
launch autoscroll
font size
0
reset
how to read this tab
guitar tuner
edit
Autoscroll
slow
fast
+/-
esc
set tempo
stop
Author
-------------------------------------------------------------------------------------------
                            THINKIN BOUT COPS - Slightly Stoopid                           
-------------------------------------------------------------------------------------------

Tabbed by: Tom C
Email:struggler713@yahoo.com

Tuning:Standard

>The main riff's notes can be played in more than one place on the guitar but this version 
 sounds most like the record to me, and is a bit easier to play, especially while singing.
>Most of the chords used can be played in more than one place as well, but again, these 
 sound best and are probably the way he plays them, if you listen carefully.
>I'm not certain about the fills for the "chorus" but I went ahead and tried my best to tab
 them out. Mess around with them if they don't sound right to you, or make up your own.
>To really get the feel for this song, and to make it sound right, keep your strumming hand
 moving up and down so that the down beats and the ands are down-strokes, and the e's and
 a's are up-strokes. 
>Pay close attention to how long he holds individual notes and chords out.
>This is my first tab, so if you have any feedback, suggestions, corrections, or requests 
 for other songs, email me.


  [Intro]            [Main Riff]
e|------------------|----------------------------------|----------------------------------|
B|------------------|----------------------------------|----------------------------------|
G|------------------|----------------------------------|----------------------------------|
D|------------------|----------------------------------|----------------------------------|
A|------------------|7---------------------------------|7---------------------------------|
E|x-x-x-7-10---7-10-|--0---0-0---x-x-x-x-x-7-10---7-10-|--0---0-0---x-x-x-x-x-7-10---7-10-|
  3   +   4    +     1   +   2   +   3   +   4    +     1   +   2   +   3   +   4    +     


e|----------------------------------|----------7-7-7---5-5-5---------|
B|----------------------------------|----------7-7-7---5-5-5---------|
G|----------------------------------|----------7-7-7---6-6-6---------|
D|----------------------------------|----------7-7-7---7-7-7---------|
A|7---------------------------------|----------5-5-5---7-7-7---------|
E|--0---0-0---x-x-x-x-x-7-10---7-10-|0---0-----5-5-5---5-5-5---------|
  1   +   2   +   3   +   4    +     1   +   2   +   3   +   4   +    


  ["Chorus"]
e|3-----------2---------------0---|--------------------------------|
B|3-----------2---------------0---|------------------------0-------|
G|4-----------2---------------1---|----------------------1---1-----|
D|5-----------4---------------2---|--------------------2-------2---|
A|5-----------4---------------2---|------------------2-----------2-|
E|3-----------2---------------0---|----------------0---------------|
  1   +   2   +   3   +   4   +    1   +   2   +   3   +   4   +    
                                 OR
                                  |----------------15p12-------------------------------|
                                  |----------------------15-15p12----------------------|
                                  |-------------------------------14-14p12-------------|
                                  |----------------------------------------14-14p12----|
                                  |-------------------------------------------------14-|
                                  |----------------------------------------------------|
                                   1   +   2   +   3        +        4        +         
                                                   (these are triplets)

| /  slide up
| \  slide down
| h  hammer-on
| p  pull-off
| ~  vibrato
| +  harmonic
| x  Mute note
===========================================================================================

            
            
Suggest correction
Creating personal tab
Creating personal tab
You can edit any tab online and save it as your Personal.

You can edit, replace or remove any tab part or add personal notes – all changes will be seen only by you.

Personal tabs can be accessed anytime from any device, even offline.
Learn more »
Give kudos to tab author, rate the tab!
1 2 3 4 5
comments
print report bad tab
guest
You may want to rate the tab now too:
select rating
Wanna post a correction for this tab? Suggest correction