Oops, an error
Loading. Please wait.

Alptraum bass

by Slime
1,173 views 3 this week
no commentswrite comment
1 2 3 4 5
2 more votes to show rating
add to favorites
×
Save as Personal and add changes to this tab that will be seen only by you. Learn more ›
×
You can save this tab as Personal to edit and correct it or add notes. All changes will be seen only by you. Learn more »
launch autoscroll
font size
0
reset
guitar tuner
edit
Autoscroll
slow
fast
+/-
esc
set tempo
stop
Slime - Alptraum


Intro

G|--------------|-------------|---------------|---------------|
D|--------------|-------------|---------------|----------5-7--|
A|-0-0-0-0-7-0--|--0-0-0-7-0--|--0-0-0-0-7-0--|--7-7-7-7------|
E|--------------|-------------|---------------|---------------|

G|--------------|-------------|---------------|---------------|
D|--------------|-------------|---------------|---------------|
A|-8-8-8-8-7-5--|--8-8-8-7-5--|--8-8-8-8-7-5--|---------------|
E|--------------|-------------|---------------|--8-8-8-7-7-7--|

2x

Strophe 1

G|--------------|-------------|---------------|---------------|
D|--------------|-------------|---------------|----------5-7--|
A|-0-0-0-0-7-0--|--0-0-0-7-0--|--0-0-0-0-7-0--|--7-7-7-7------|
E|--------------|-------------|---------------|---------------|

G|--------------|-------------|---------------|---------------|
D|--------------|-------------|---------------|---------------|
A|-8-8-8-8-7-5--|--8-8-8-7-5--|--8-8-8-8-7-5--|---------------|
E|--------------|-------------|---------------|--8-8-8-7-7-7--|

G|--------------|-------------|---------------|---------------|
D|--------------|-------------|---------------|----------5-7--|
A|-0-0-0-0-7-0--|--0-0-0-7-0--|--0-0-0-0-7-0--|--7-7-7-7------|
E|--------------|-------------|---------------|---------------|

G|--------------|-------------|---------------|---------------|
D|--------------|-------------|---------------|---------------|
A|-8-8-8-8-7-5--|--8-8-8-7-5--|--8-8-8-8-7-5--|---------------|
E|--------------|-------------|---------------|--8-8-8-7-7-7--|

G|--------------|-------------|---------------|---------------|
D|--------------|-------------|---------------|----------5-7--|
A|-0-0-0-0-7-0--|--0-0-0-7-0--|--0-0-0-0-7-0--|--7-7-7-7------|
E|--------------|-------------|---------------|---------------|

G|--------------|-------------|---------------|---------------|
D|--------------|-------------|---------------|---------------|
A|-8-8-8-8-7-5--|--8-8-8-7-5--|--8-8-8-8-7-5--|---------------|
E|--------------|-------------|---------------|--8-8-8-7-7-7--|

G|--------------|-------------|---------------|---------------|
D|--------------|-------------|---------------|----------5-7--|
A|-0-0-0-0-7-0--|--0-0-0-7-0--|--0-0-0-0-7-0--|--7-7-7-7------|
E|--------------|-------------|---------------|---------------|

G|--------------|-------------|---------------|---------------|
D|--------------|-------------|---------------|---------------|
A|-8-8-8-8-7-5--|--8-8-8-7-5--|--8-8-8-8-7-5--|---------------|
E|--------------|-------------|---------------|---------------|

Bridge

G|------------|-----------|
D|------------|-----------|
A|--8--7--8---|--7--8--9--|
E|------------|-----------|


Refrain

G|-------------|--------------|--------------|--------------|
D|-------------|--------------|--------------|--------------|
A|-------------|--------------|--------------|--------------|
E|-8--8--8--8--|--8--8--8--8--|--3--3--3--3--|--3--3--3--3--|

G|-------------|--------------|--------------|--------------|
D|-------------|--------------|--------------|--------------|
A|-------------|--------------|--------------|--------------|
E|-5--5--5--5--|--5--5--5--5--|--1--1--1--1--|--3--3--3--3--|

G|-------------|--------------|--------------|--------------|
D|-------------|--------------|--------------|--------------|
A|-------------|--------------|--------------|--------------|
E|-8--8--8--8--|--8--8--8--8--|--3--3--3--3--|--3--3--3--3--|

G|-------------|--------------|--------------|--------------|
D|-------------|--------------|--------------|--------------|
A|-------------|--------------|--------------|--------------|
E|-5--5--5--5--|--5--5--5--5--|--0--0--0--0--|--0--0--0--0--|

G|-------------|--------------|--------------|--------------|
D|-------------|--------------|--------------|--------------|
A|-------------|--------------|--------------|--------------|
E|-1--1--1--1--|--1--1--1--1--|------3-------|----3--4------|

G|--------------|-------------|---------------|---------------|
D|--------------|-------------|---------------|----------5-7--|
A|-0-0-0-0-7-0--|--0-0-0-7-0--|--0-0-0-0-7-0--|--7-7-7-7------|
E|--------------|-------------|---------------|---------------|

G|--------------|-------------|---------------|---------------|
D|--------------|-------------|---------------|---------------|
A|-8-8-8-8-7-5--|--8-8-8-7-5--|--8-8-8-8-7-5--|---------------|
E|--------------|-------------|---------------|--8-8-8-7-7-7--|

Strophe 2

G|--------------|-------------|---------------|---------------|
D|--------------|-------------|---------------|----------5-7--|
A|-0-0-0-0-7-0--|--0-0-0-7-0--|--0-0-0-0-7-0--|--7-7-7-7------|
E|--------------|-------------|---------------|---------------|

G|--------------|-------------|---------------|---------------|
D|--------------|-------------|---------------|---------------|
A|-8-8-8-8-7-5--|--8-8-8-7-5--|--8-8-8-8-7-5--|---------------|
E|--------------|-------------|---------------|--8-8-8-7-7-7--|

G|--------------|-------------|---------------|---------------|
D|--------------|-------------|---------------|----------5-7--|
A|-0-0-0-0-7-0--|--0-0-0-7-0--|--0-0-0-0-7-0--|--7-7-7-7------|
E|--------------|-------------|---------------|---------------|

G|--------------|-------------|---------------|---------------|
D|--------------|-------------|---------------|---------------|
A|-8-8-8-8-7-5--|--8-8-8-7-5--|--8-8-8-8-7-5--|---------------|
E|--------------|-------------|---------------|--8-8-8-7-7-7--|

G|--------------|-------------|---------------|---------------|
D|--------------|-------------|---------------|----------5-7--|
A|-0-0-0-0-7-0--|--0-0-0-7-0--|--0-0-0-0-7-0--|--7-7-7-7------|
E|--------------|-------------|---------------|---------------|

G|--------------|-------------|---------------|---------------|
D|--------------|-------------|---------------|---------------|
A|-8-8-8-8-7-5--|--8-8-8-7-5--|--8-8-8-8-7-5--|---------------|
E|--------------|-------------|---------------|--8-8-8-7-7-7--|

G|--------------|-------------|---------------|---------------|
D|--------------|-------------|---------------|----------5-7--|
A|-0-0-0-0-7-0--|--0-0-0-7-0--|--0-0-0-0-7-0--|--7-7-7-7------|
E|--------------|-------------|---------------|---------------|

G|--------------|-------------|---------------|---------------|
D|--------------|-------------|---------------|---------------|
A|-8-8-8-8-7-5--|--8-8-8-7-5--|--8-8-8-8-7-5--|---------------|
E|--------------|-------------|---------------|---------------|

Bridge

G|------------|-----------|
D|------------|-----------|
A|--8--7--8---|--7--8--9--|
E|------------|-----------|


Refrain

G|-------------|--------------|--------------|--------------|
D|-------------|--------------|--------------|--------------|
A|-------------|--------------|--------------|--------------|
E|-8--8--8--8--|--8--8--8--8--|--3--3--3--3--|--3--3--3--3--|

G|-------------|--------------|--------------|--------------|
D|-------------|--------------|--------------|--------------|
A|-------------|--------------|--------------|--------------|
E|-5--5--5--5--|--5--5--5--5--|--1--1--1--1--|--3--3--3--3--|

G|-------------|--------------|--------------|--------------|
D|-------------|--------------|--------------|--------------|
A|-------------|--------------|--------------|--------------|
E|-8--8--8--8--|--8--8--8--8--|--3--3--3--3--|--3--3--3--3--|

G|-------------|--------------|--------------|--------------|
D|-------------|--------------|--------------|--------------|
A|-------------|--------------|--------------|--------------|
E|-5--5--5--5--|--5--5--5--5--|--0--0--0--0--|--0--0--0--0--|

G|-------------|--------------|--------------|--------------|
D|-------------|--------------|--------------|--------------|
A|-------------|--------------|--------------|--------------|
E|-1--1--1--1--|--1--1--1--1--|-----3--2-----|----3--4------|

Solo 

G|---------------|--------------|---------------|--------------|
D|---------------|--------------|---------------|--------------|
A|---------------|--------------|---------------|--------------|
E|-5--5-5-5--5-5-|5--5-5-5--5-5-|-3--3-3-3--3-3-|3--3-3-3--3-3-|

G|---------------|---------------|---------------|----|
D|---------------|---------------|---------------|----|
A|---------------|---------------|---------------|----|
E|-1--1-1-1--1-1-|1--1-1-1--1-1--|-3--3-3-3--3-3-|3-4-|

G|---------------|--------------|---------------|--------------|
D|---------------|--------------|---------------|--------------|
A|---------------|--------------|---------------|--------------|
E|-5--5-5-5--5-5-|5--5-5-5--5-5-|-3--3-3-3--3-3-|3--3-3-3--3-3-|

G|---------------|---------------|
D|---------------|---------------|
A|---------------|---------------|
E|-1--1-1-1--1-1-|1--1-1-1--1-1--|

Bridge

G|------------|-----------|
D|------------|-----------|
A|------------|-----------|
E|--0--1--0---|--0--1--3--|

Refrain

G|-------------|--------------|--------------|--------------|
D|-------------|--------------|--------------|--------------|
A|-------------|--------------|--------------|--------------|
E|-8--8--8--8--|--8--8--8--8--|--3--3--3--3--|--3--3--3--3--|

G|-------------|--------------|--------------|--------------|
D|-------------|--------------|--------------|--------------|
A|-------------|--------------|--------------|--------------|
E|-5--5--5--5--|--5--5--5--5--|--1--1--1--1--|--3--3--3--3--|

G|-------------|--------------|--------------|--------------|
D|-------------|--------------|--------------|--------------|
A|-------------|--------------|--------------|--------------|
E|-8--8--8--8--|--8--8--8--8--|--3--3--3--3--|--3--3--3--3--|

G|-------------|--------------|--------------|--------------|
D|-------------|--------------|--------------|--------------|
A|-------------|--------------|--------------|--------------|
E|-5--5--5--5--|--5--5--5--5--|--0--0--0--0--|--0--0--0--0--|

G|-------------|--------------|-----------|-----------|-----------|
D|-------------|--------------|-----------|-----------|-----------|
A|-------------|--------------|-----------|-----------|--0--------|
E|-1--1--1--1--|--1--1--1--1--|--3--2--3--|--2--3--4--|-----------|




            
            
Suggest correction
Creating personal tab
Creating personal tab
You can edit any tab online and save it as your Personal.

You can edit, replace or remove any tab part or add personal notes – all changes will be seen only by you.

Personal tabs can be accessed anytime from any device, even offline.
Learn more »
Give kudos to tab author, rate the tab!
1 2 3 4 5
comments
print report bad tab
guest
Wanna post a correction for this tab? Suggest correction