Oops, an error
Loading. Please wait.

Deutschland Muss Sterben bass

version 1
version 1

Whole song

Interactive

by Slime
5,989 views 12 this week
2 commentsread comments
1 2 3 4 5
x 4
add to favorites
×
Save as Personal and add changes to this tab that will be seen only by you. Learn more ›
×
You can save this tab as Personal to edit and correct it or add notes. All changes will be seen only by you. Learn more »
launch autoscroll
font size
0
reset
guitar tuner
edit
Autoscroll
slow
fast
+/-
esc
set tempo
stop
Author
Difficulty
 verse                                     play riff 8 times
G|---------------------------------------------------------------------------|
D|------77777----------------------------------------------------------------|
A|--5---------8-5---------5------8--5----------------------------------------|
E|------------------3--6------5----------------------------------------------|

refrain                                    play riff 4 times 
G|---------------------------------------------------------------------------|
D|---------------------------------------------------------------------------|
A|--5555---------------55----------------------------------------------------|
E|--------5555---7777-----55-------------------------------------------------|


structure: -verse
           -refrain
           -verse
           -refrain
           -verse
           -refrain x2

            
            
Suggest correction
Creating personal tab
Creating personal tab
You can edit any tab online and save it as your Personal.

You can edit, replace or remove any tab part or add personal notes – all changes will be seen only by you.

Personal tabs can be accessed anytime from any device, even offline.
Learn more »
comments
print report bad tab
2 comments total.
-1 reply
nebensklo 321 Dec 28, 2007 09:54 AM

Eher so:


-----
-----
-----
-----7777-3-----
---5-----5-----5----7---
-----3--6-----5----8
[/tab

0 reply
Pasch22 36 Apr 20, 2016 04:23 AM

Es ist nicht E:5 A:8 5 beim letzten teil

guest
You may want to rate the tab now too:
select rating
Wanna post a correction for this tab? Suggest correction