Oops, an error
Loading. Please wait.

Glenn tab

version 2
version 2

Whole song

by Slint
319 views 1 this week
no commentswrite comment
1 2 3 4 5
2 more votes to show rating
add to favorites
×
Save as Personal and add changes to this tab that will be seen only by you. Learn more ›
×
You can save this tab as Personal to edit and correct it or add notes. All changes will be seen only by you. Learn more »
launch autoscroll
font size
0
reset
how to read this tab
guitar tuner
edit
Autoscroll
slow
fast
+/-
esc
set tempo
stop
Author
-------------------------------------------------------------------------------
                                Glenn - Slint
-------------------------------------------------------------------------------
E-mail: vtimdon@gmail.com

Tuning: Unlike a large number of Slint songs, it's in standard. 

After the bass does the little intro thing using the tapping technique, open with the following riffs 
repeated thrice. 

MELODY 1.1
e|-----------0--------|
B|-1-----0-1---3------|
G|---2-----------2--0-|
D|-----3--------------|
A|--------------------|
E|--------------------|

e|---------------0-----------|
B|---------------------1---1-|
G|-3-2---2---0-1-----1---1---|
D|---------------------------|
A|---------------------------|
E|---------------------------|

Then go to the next riff, this is essentially following the bassline. 

MELODY 1.2
e|---------------------------------------------------------------------------|
B|---------------------------------------------------------------------------|
G|---------------------------------------------------------------------------|
D|-7-----7-------7---7---7-7-----7-------7---7---7-7-----7-----7-------3---3-|
A|---0-0---0-0-8---8---8-----0-0---0-0-8---8---8-----0-0---0-0---0-0-3---3---|
E|---------------------------------------------------------------------------|

Guitar 2 comes in at this point, playing the following. Do this three times (again, this song has heavy 
emphasis on x3).

MELODY 2.1
e|-------------------------------------------------------------------|
B|-------------------------------------------------------------------|
G|-------------------------------------------------------------------|
D|-7-----7-------7---7---7-7-----7-------7---7---7-7-----7-----7-----|
A|---0-0---0-0-8---8---8-----0-0---0-0-8---8---8-----0-0---0-0---0-0-|
E|-------------------------------------------------------------------|

Then Guitar 1 constantly repeats the next mute picked riff 18 times while Guitar 2 plays Melody 2.2 for 3 
more repeats. 

MELODY 1.3
e|-----------|
B|-----------|
G|-----------|
D|-x-x-x-----|
A|-0-0-0-(7)-|
E|-x-x-x-----|

(7) denotes a natural harmonic at the 7th fret


MELODY 2.2
e|-------------------------------------------------------------------------------|
B|-------------------------------------------------------------------------------|
G|-------------------------------------------------------------------------------|
D|-7-----7-------7---7---7-7-----7-------7---7---7-7-----7-----7-------7---7---7-|
A|---0-0---0-0-8---8---8-----0-0---0-0-8---8---8-----0-0---0-0---0-0-8---8---8---|
E|-------------------------------------------------------------------------------|

On the very last repeat of the riff just throw in an open A string after the third repeat has finished. 

After this it's all repeats of what's already been played, with exception from a completely improvised Ebow 
solo for 9 bars and Guitar 2 playing Melody 2.3 while the solo is taking place

MELODY 2.3
e|-------------------------------------------------------------------------------|
B|-------------------------------------------------------------------------------|
G|-------------------------------------------------------------------------------|
D|-7-----7-------7---7---7-7-----7-------7---7---7-7-----7-----7--------11----11-|
A|---0-0---0-0-8---8---8-----0-0---0-0-8---8---8-----0-0---0-0---0-0-11----11----|
E|-------------------------------------------------------------------------------|

Here's a chart of what gets played when how many times

GUITAR 1        GUITAR 2
Bass intro      Bass intro
Melody 1.1 x3   
Melody 1.2 x3   Melody 2.1 x3
Melody 1.3 x18  Melody 2.2 x3
Bass intro      Bass intro
Melody 1.3 x18  Melody 2.2 x3
Melody 1.2 x3   Melody 2.1 x3
Melody 1.1 x3
Melody 1.2 x3   Melody 2.1 x3
Ebow solo       Melody 2.3 x9
Melody 1.2 x5   Melody 2.3 x5

And that's it. 
I might add a bass tab to accompany this one in the future, the bassline on this song is quite repetitive but
there are some unexpected changes here and there. 

Any questions, email me at vtimdon@gmail.com

            
            
Suggest correction
Creating personal tab
Creating personal tab
You can edit any tab online and save it as your Personal.

You can edit, replace or remove any tab part or add personal notes – all changes will be seen only by you.

Personal tabs can be accessed anytime from any device, even offline.
Learn more »
Give kudos to tab author, rate the tab!
1 2 3 4 5
comments
print report bad tab
guest
You may want to rate the tab now too:
select rating
Wanna post a correction for this tab? Suggest correction