Oops, an error
Loading. Please wait.
We have an official Before I Forget tab made by UG professional guitarists. Check out the tab »
×
9,122 views 33 this week
no commentswrite comment
1 2 3 4 5
x 6
add to favorites
×
Save as Personal and add changes to this tab that will be seen only by you. Learn more ›
×
You can save this tab as Personal to edit and correct it or add notes. All changes will be seen only by you. Learn more »
launch autoscroll
font size
0
reset
guitar tuner
backing track
0:00
0:00
edit
Autoscroll
slow
fast
+/-
esc
set tempo
stop
-----------------------------------------------------------------------------
                             Before I Forget - Slipknot
-----------------------------------------------------------------------------
Tabbed by: Andu Needle
E-mail: sulfur_in_my_lungs@yahoo.com

Intro:

E |------------------------------------------------------------|
B |------------------------------------------------------------|
F#|------------------------------------------------------------|
B |-2-2-2-2(x3)-2-2-55-00--55-00-------------------------------|


E |------------------------------------------------------------|
B |------------------------------------------------------------|
F#|------------------------------------------------------------|
B |-0h2-0h2-3\2-0h2-3\2p0(x3)-0h2-0h2-0h2-55-00----------------|

E |------------------------------------------------------------|
B |------------------------------------------------------------|
F#|------------------------------------------------------------|
B |-0h2-0h2-3\2-0h2-3\2p0(x3)-0h2-0h2-0h2-55-00--55-00---------|

Verse:

E |------------------------------------------------------------|
B |------------------------------------------------------------|
F#|------------------------------------------------------------|
B |-22223-2223(x3)-22223-55-00---------------------------------|(x3)

Pre chorus:

E |------------------------------------------------------------|
B |------------------------------------------------------------|
F#|------------------------------------------------------------|
B |-2-2-3--2-2-3-----------------------------------------------|(x4)

Chorus:

E |------------------------------------------------------------|
B |------------------------------------------------------------|
F#|------------------------------------------------------------|
B |-xx2~-3-2-5~-00-55-0-7/-------------------------------------|(x3)

E |------------------------------------------------------------|
B |------------------------------------------------------------|
F#|------------------------------------------------------------|
B |-xx2~-3-2-5~-00-55-0-8-7-7-787(10)5~-5587~------------------|

Yes, the number between the bracest is a 10.

Main riff again!
Verse 2 is like the first one!
Pre chorus 2 is like the first one!
Chorus 2 is like the first one!

Interlude:

E |-------------------------------------------------------------|
B |-------------------------------------------------------------|
F#|----------------------2-22-5-55------------------------------|
B |-3-3333-0-0000-2-2222----------------------------------------|(x4)

Bridge:

E |-------------------------------------------------------------|
B |-------------------------------------------------------------|
F#|----------------------------2-22-5-55------------------------|
B |-33333333-00000000-22222222----------------------------------|(x3)

E |-------------------------------------------------------------|
B |-------------------------------------------------------------|
F#|-------------------------------------------------------------|
B |-33333333-00000000-22222222(x2)------------------------------|

Last chorus is just like the other but it is played for 3 times this time!
Ending is the main riff!

            
            
Suggest correction
Creating personal tab
Creating personal tab
You can edit any tab online and save it as your Personal.

You can edit, replace or remove any tab part or add personal notes – all changes will be seen only by you.

Personal tabs can be accessed anytime from any device, even offline.
Learn more »
comments
print report bad tab
guest
You may want to rate the tab now too:
select rating
Wanna post a correction for this tab? Suggest correction