Oops, an error
Loading. Please wait.

Circle tab

version 1
version 1

Whole song

Interactive

29,064 views 27 this week
9 commentsread comments
1 2 3 4 5
x 4
add to favorites
×
Save as Personal and add changes to this tab that will be seen only by you. Learn more ›
×
You can save this tab as Personal to edit and correct it or add notes. All changes will be seen only by you. Learn more »
launch autoscroll
font size
0
reset
how to read this tab
guitar tuner
edit
Autoscroll
slow
fast
+/-
esc
set tempo
stop
Slipknot- Circle
tabbed by RZO
DADGAD tuning, capo II:
(low to high) D-A-D-G-A-D

~ = Vibrato

D|0--0-0-0-0-0--0-0-0-0|
A|0--0-0-0-0-0--0-0-0-0|
G|2--2-2-2-2-2--2-2-2-2| X3 Gtr 1 acoustic
D|0--0-0-0-0-0--0-0-0-0|
A|0--0-0-0-0-0--0-0-0-0|
D|0--0-0-0-0-0--0-0-0-0|

D|0--0-0-0-0-0--0-0-0-0||0--0-0-0-0-0--0-0-0-0||0--0-0-0-0-0--0-0-0-0||0--0-0-0-0-0--0-0-0-0|
A|0--0-0-0-0-0--0-0-0-0||0--0-0-0-0-0--0-0-0-0||0--0-0-0-0-0--0-0-0-0||0--0-0-0-0-0--0-0-0-0|
G|2--2-2-2-2-2--2-2-2-2||2--2-2-2-2-2--2-2-2-2||2--2-2-2-2-2--2-2-2-2||2--2-0-0-0-2--2-0-0-0|
D|0--0-0-0-0-0--0-0-0-0||0--0-0-0-0-0--0-0-0-0||0--0-0-0-0-0--0-0-0-0||0--0-0-0-0-0--0-0-0-0|
A|0--0-0-0-0-0--0-0-0-0||0--0-0-0-0-0--0-0-0-0||0--0-0-0-0-3--3-1-1-1||0--0-0-0-0-0--0-0-0-0|
D|0--0-0-0-0-0--0-0-0-0||0--0-0-0-0-0--0-0-0-0||0--0-0-0-0-0--0-0-0-0||0--0-5-5-5-3--3-5-5-5|

Time 0:34

D|0--0-0-0-0-0--0-0-0-0||0--0-0-0-0-0--0-0-0-0||0--0-0-0-0-0--0-0-0-0||0--0-0-0-0-0--0-0-0-0|
A|0--0-0-0-0-0--0-0-0-0||0--0-0-0-0-0--0-0-0-0||0--0-0-0-0-0--0-0-0-0||0--0-0-0-0-0--0-0-0-0|
G|2--2-2-2-2-2--2-2-2-2||2--2-2-2-2-2--2-2-2-2||2--2-2-2-2-2--2-0-0-0||2--2-2-2-2-2--2-2-2-2|
D|0--0-0-0-0-0--0-0-0-0||0--0-0-0-0-0--0-0-0-0||0--0-0-0-0-0--0-0-0-0||0--0-0-0-0-0--0-0-0-0|
A|0--0-0-0-0-0--0-0-0-0||0--0-0-0-0-0--0-0-0-0||0--0-0-0-0-0--0-0-0-0||0--0-1-1-1-3--3-1-1-1|
D|0--0-0-0-0-0--0-0-0-0||0--0-0-0-0-0--0-0-0-0||0--0-0-0-0-3--3-5-5-5||0--0-0-0-0-0--0-0-0-0|

Time 0:53
   ~~~~ ~~~~~ ~~~~ ~~~~   ~~~~~~~~~~~~~~~~~~~~~~~~~~~~~~~~~~~~~~~~~~~
D|---------------------||---------------------||---------------------||---------------------|
A|---------------------||---------------------||---------------------||---------------------|
G|---------------------||---------------------||---------------------||---------------------|
D|5----7-----4----5----||---------------------||---------------------||---------------------|
A|---------------------||-7-------------------||---------------------||---------------------|
D|---------------------||---------------------||---------------------||---------------------|

Time 1:06
  ~~~~ ~~~~ ~~~~ ~~~~~~    ~~~~~~~~~~~~~~~~~~~~~~~~~~~~~~~~~~~~~~~~~~
D|---------------------||---------------------||---------------------||---------------------|
A|---------------------||---------------------||---------------------||---------------------|
G|---------------------||---------------------||---------------------||---------------------|
D|---------------------||---------------------||---------------------||---------------------|
A|---------------------||-7-------------------||---------------------||---------------------|
D|3---5----2----3------||---------------------||---------------------||---------------------|

Time 1:16
D|---------------------||---------------------||---------------------||---------------------|
A|---------------------||---------------------||---------------------||---------------------|
G|---------------------||---------------------||---------------------||----------------11^-9|
D|---------------------||---------------------||---------------------||---------------------|
A|---------------------||---------------------||---------------------||---------------------|
D|---------------------||---------------------||---------------------||---------------------|
|
D|---------------------||---------------------||---------------------||---------------------|
A|---------------------||---------------------||---------------------||---------------------|
G|------------------9--||9---9--10/9---9---9--||10/9---9---10/9--9-9-||10/9---9---10/9--9-9-|
D|---------------------||---------------------||---------------------||---------------------|
A|---------------------||---------------------||---------------------||---------------------|
D|---------------------||---------------------||---------------------||---------------------|

Time 1:22
                                       ~~~~~~~
D|---------------------||---------------------||---------------------||---------------------|
A|-17-17-17^--17-17-17-||-17-17---17-17-------||-17-----15--15-------||---------------------|
G|(9)------------------||---------------------||----14---------14--16||-16--(16)\9--9-------|
D|---------------------||---------------------||---------------------||---------------------|
A|---------------------||---------------------||---------------------||---------------------|
D|---------------------||---------------------||---------------------||---------------------|

                           Let Ring=================================
D|---------------------||---------------------||---------------------||---------------------|
A|-5--5--------/12--12-||-12\10----10---10----||---------------------||---------------------|
G|---------------------||--------9----9----9--||---------------------||---------------------|
D|---------------------||---------------------||---------------------||---------------------|
A|---------------------||---------------------||---------------------||---------------------|
D|---------------------||---------------------||---------------------||---------------------|

  Let Ring===================================================================
D|---------------------||---------------------||---------------------||---------------------|
A|---------------------||---------------------||---------------------||---------------------|
G|----2---------2------||---------------------||----2---------2------||-4-------------------|
D|-2-----2----------2--||---------------------||-2-----2----------2--||---------------------|
A|---------------------||---------------------||---------------------||---------------------|
D|---------------------||---------------------||---------------------||---------------------|

Time 1:29

D|---------------------||---------------------||---------------------||--0------------------|
A|---------------------||---------------------||---------------------||--0------------------|
G|----2---------2------||-2-------------------||----2---------2------||--0------------------|
D|-2-----2----------2--||---------------------||-2-----2----------2--||--2------------------|
A|---------------------||---------------------||---------------------||--2------------------|
D|---------------------||---------------------||---------------------||--0------------------|

Time 1:52
                         Let Ring===========================================================
D|---------------------||-19-----------19-----||-------------19------||------19-------------|
A|---------------------||-----17-----------17-||-----------------17--||----------17---------|
G|---------------------||---------------------||---------------------||---------------------|
D|---------------------||---------------------||---------------------||---------------------|
A|---------------------||---------------------||---------------------||---------------------|
D|---------------------||---------------------||---------------------||---------------------|

D|---------------------||---------------------||---------------------||---------------------|
A|---------------------||---------------------||---------------------||---------------------|
G|-7/9-----------------||-9/11----------------||-11/12---------------||-12/14---------------|
D|-*-------------------||-*-------------------||-*-------------------||---------------------|
A|-5/7-----------------||-7/9-----------------||-9/10----------------||-10/12---------------|
D|---------------------||---------------------||---------------------||---------------------|

Time: 2:00
            ~~~~~~~~~~~~~~~~~~~~~~~~~~~~~~~~~~~~~~~~~~~~~~~~~~~~~~~~~~~~~~~~~~~~~~~~~~~~~~~~
D|---------------------||---------------------||---------------------||---------------------|
A|---------------------||---------------------||---------------------||---------------------|
G|---------------------||---------------------||---------------------||---------------------|
D|---------------------||---------------------||---------------------||---------------------|
A|--------14-----------||---------------------||---------------------||---------------------|
D|-10/12---------------||---------------------||---------------------||---------------------|

D|---------------------||---------------------||---------------------||---------------------|
A|---------------------||---------------------||---------------------||-----------17--(17)\-|
G|---------------------||---------------------||---------------------||---------------------|
D|---------------------||---------------------||---------------------||---------------------|
A|---------------------||---------------------||---------------------||---------------------|
D|---------------------||---------------------||---------------------||---------------------|

D|---------------------||---------------------||---------------------||---------------------|
A|-\12-----------------||---------------------||---------------------||---------------------|
G|---------------------||---------------------||---------------------||---------------------|
D|---------------------||---------------------||---------------------||---------------------|
A|---------------------||---------------------||---------------------||---------------------|
D|---------------------||---------------------||---------------------||---------------------|

D|---------------------||---------------------||---------------------||---------------------|
A|---------------------||---------------------||---------------------||---------------------|
G|---------------------||-------------9--9--9-||10/9---9---10/9--9---||10/9---9---10/9--9-9-|
D|---------------------||---------------------||---------------------||---------------------|
A|---------------------||---------------------||---------------------||---------------------|
D|---------------------||---------------------||---------------------||---------------------|

Time 2:40

D|---------------------||---------------------||---------------------||---------------------|
A|---------------------||---------------------||---------------------||---------------------|
G|---------------------||---------------------||---------------------||---------------------|
D|-12------------------||-11------------------||-10------------------||-9------------9---11-|
A|-*-------------------||-*-------------------||-*-------------------||-*------------*---*--|
D|-10------------------||-9-------------------||-8-------------------||-7------------7---9--|

Time 2:56

D|---------------------||---------------------||---------------------||---------------------|
A|---------------------||---------------------||---------------------||---------------------|
G|---------------------||---------------------||---------------------||---------------------|
D|-12------------------||-12------------------||-17------------------||-17\14-----------14\-|
A|-*-------------------||-*-------------------||-*-------------------||-*---------------*---|
D|-10------------------||-14------------------||-15------------------||-15\12-----------12\-|

Time 3:03

D|---------------------||---------------------||---------------------||---------------------|
A|---------------------||---------------------||---------------------||---------------------|
G|---------------------||---------------------||---------------------||---------------------|
D|-10/12---------------||-11------------------||-10------------(10)\-||-\2------------------|
A|-*-------------------||-*-------------------||-*-------------------||-*-------------------|
D|-8/10----------------||-9-------------------||-8--------------(8)\-||-\0------------------|

Time 3:17 Outro


D|--------12-----------||-------15------------||--------7------------||--------7------------|
A|-----13----13-----13-||----15----15-----15\-||----8------8------8--||----8-------8------8-|
G|-/12----------12-----||-12----------12------||-9------------9------||-9-------------9-----|
D|---------------------||---------------------||---------------------||---------------------|
A|---------------------||---------------------||---------------------||---------------------|
D|---------------------||---------------------||---------------------||---------------------|

D|-3-3-3-3-3-3--3-3-3-3||-3-3-3-3-3-3--3-3-3-0||-0-0-0-0-0-0--0-0-0-0||-0-0-0-0-0-0--0-0-0-0|
A|-3-3-3-3-3-3--3-3-3-3||-3-3-3-3-3-3--3-3-3-0||-0-0-0-0-0-3--3-3-3-3||-2-2-2-2-2-0--0-0-0-0|
G|-3-3-3-3-3-3--3-3-3-3||-5-5-5-5-5-5--5-5-5-0||-2-2-2-2-2-2--2-2-2-2||-2-2-2-2-2-2--2-2-2-0|
D|-3-3-3-3-3-3--3-3-3-3||-3-3-3-3-3-3--3-3-3-0||-0-0-0-0-0-0--0-0-0-0||-0-0-0-0-0-0--0-0-0-0|
A|-1-1-1-1-1-1--1-1-1-1||-3-3-3-3-3-3--3-3-3--||-0-0-0-0-0-0--0-0-0-0||-0-0-0-0-0-0--0-0-0--|
D|---------------------||-3-3-3-3-3-3--3-3-3--||-0-0-0-0-0-0--0-0-0-0||-0-0-0-0-0-0--0-0-0--|

D|-3-----3---3---3---3---3---------3----3----3----3----||-3------3---3---3---3---3--------|
A|-3-----3---3---3---3---3---------3----3----3----3----||-3------3---3---3---3---3--------|
G|-3-----3---3---3---3---3---------3----3----3----3----||-5------5---5---5---5---5--------|
D|-3-----3---3---3---3---3---------3----3----3----3----||-3------3---3---3---3---3--------|
A|-1-----1---1---1---1---1---------1----1----1----1----||-3------3---3---3---3---3--------|
D|-----------------------------------------------------||-3------3---3---3---3---3--------|

D|--3----3----3----0----|
A|--3----3----3----0----|
G|--5----5----5----0----|
D|--3----3----3----0----|
A|--3----3----3---------|
D|--3----3----3---------|


D|-----------------------------------------------------||----------------------------------|
A|-----------------------------------------------------||----------------------------------|
G|------------------------15---------------------------||----------------------------------|
D|12-12-12-12-15-12-12-12-------12-12-12-12-12-12-12-12||-12-12-12-12-15-12-12-12-12-12----|
A|------------------------13---------------------------||----------------------------------|
D|10-10-10-10-13-10-10-10-------10-10-10-10-10-10-10-10||-10-10-10-10-13-10-10-10-9-----9--|

D|--------------------------|
A|--------------------------|
G|--------------------------|
D|12-12-12-12-12-12-12--12--|
A|--------------------------|
D|-9--9--8--8--9-----9------|

D|-0-0-0-0-0-3--3-3-3-3||-2-2-2-2-2-0--0-0-0-0|
A|-0-0-0-0-0-0--0-0-0-0||-0-0-0-0-0-0--0-0-0-0|
G|-2-2-2-2-2-2--2-2-2-2||-2-2-2-2-2-2--2-2-2-0|
D|-0-0-0-0-0-0--0-0-0-0||-0-0-0-0-0-0--0-0-0-0|
A|-0-0-0-0-0-0--0-0-0-0||-0-0-0-0-0-0--0-0-0--|
D|-0-0-0-0-0-0--0-0-0-0||-0-0-0-0-0-0--0-0-0--|

D|------------------12----------------------------------------------15----------------------|
A|----------13--------------13--------------13--------------15--------------15----------15\-|
G|-/12------------------------------12--------------12----------------------------12--------|
D|------------------------------------------------------------------------------------------|
A|------------------------------------------------------------------------------------------|
D|------------------------------------------------------------------------------------------|

D|--------------------------------------------------------------------------------------------|
A|--------------------------------------------------------------------------------------------|
G|------------------------15------------------------------------------------------------------|
D|12-12-12-12-15-12-12-12----12-12-12-12-12-12-12-12-12-12-12-12-12-12-12-12-12-12-12-12-12-12|
A|------------------------13------------------------------------------------------------------|
D|10-10-10-10-13-10-10-10----10-10-10-10-10-10-10-10-10-10-10-10-9-----9--9--9--9--9--9----9--|


 Let Ring=================
D|-----7-----------7------||---------------------||---------------------||---------------------|
A|---8---8---8---8---8---8||---------------------||---------------------||---------------------|
G|-9-------9---9-------9--||---------------------||---------------------||---------------------|
D|------------------------||---------------------||---------------------||---------------------|
A|------------------------||---------------------||---------------------||---------------------|
D|------------------------||---------------------||---------------------||---------------------|

D|---------------------||---------------------||---------------------||---------------------|
A|---------------------||---------------------||---------------------||---------------------|
G|---------------------||---------------------||---------------------||---------------------|
D|---------------------||---------------------||---------------------||---------------------|
A|---------------------||---------------------||---------------------||---------------------|
D|---------------------||---------------------||---------------------||----9--9-9-9-8-8-9-9-|

D|---------------------------------------------------------------------------------------------------------|
A|---------------------------------------------------------------------------------------------------------|
G|-------------------------15------------------------------------------------------------------------------|
D|-12-12-12-12-15-12-12-12------12-12-12-12-12-12-12-12-12-12-12-12-15-12-12-12-12-12-12-12-12-12-12-12-12/|
A|---------------------------------------------------------------------------------------------------------|
D|---------------------------------------------------------------------------------------------------------|

            
            
Suggest correction
Creating personal tab
Creating personal tab
You can edit any tab online and save it as your Personal.

You can edit, replace or remove any tab part or add personal notes – all changes will be seen only by you.

Personal tabs can be accessed anytime from any device, even offline.
Learn more »
comments
print report bad tab
9 comments total. Showing first comments. show 1 bad comment
+1 reply
CrudeSapphire 10 Nov 18, 2007 11:09 AM

Beautifull song

+1 reply
frantic_saint 10 Nov 19, 2008 11:36 AM

gg, you really shouldnt love your own work and spam like that. the tab was not even good.

guest
You may want to rate the tab now too:
select rating
Wanna post a correction for this tab? Suggest correction