Oops, an error
Loading. Please wait.
We have an official Eyeless tab made by UG professional guitarists. Check out the tab »
×
96,616 views 210 this week
13 commentsread comments
1 2 3 4 5
x 27
add to favorites
×
Save as Personal and add changes to this tab that will be seen only by you. Learn more ›
×
You can save this tab as Personal to edit and correct it or add notes. All changes will be seen only by you. Learn more »
launch autoscroll
font size
0
reset
how to read this tab
guitar tuner
backing track
0:00
0:00
edit
Autoscroll
slow
fast
+/-
esc
set tempo
stop
Eyeless-Slipknot
Slipknot

Drop B
B F# B E G# C#

Riff A w/ Ring Modulator x2

C#|-12-12-12----12----12-12-12-12-12-12-12-12-12-12-----|
G#|----------16----16-16-16-16-16-16-16-16-16-16-16-----|
E |-----------------------------------------------------|
B |-----------------------------------------------------|
F#|-----------------------------------------------------|
B |-----------------------------------------------------|

Gtr 1 Riff A x2

Riff B x2

C#|-----------------------------------------------------|
G#|-----------------------------------------------------|
E |-----------------------------------------------------|
B |-----------------------------------------------------|
F#|---------2---1---------------------------------------|
B |-0-0-0-3---3---2-0-0---------------------------------|

Riff A x6

Riff C

C#|-----------------------------------------------------|
G#|-----------------------------------------------------|
E |-----------------------------------------------------|
B |-------------------------------1---------------------|
F#|---------2---1---------2-----2-----------------------|
B |-0-0-0-3---3---2-0-0-3---0-1-------------------------|

Fig 1. x4

C#|--------------------------------------------------------------------|
G#|--------------------------------------------------------------------|
E |--------------------------------------------------------------------|
B |--------------------------------------------------------------------|
F#|---------3---1-3-----5-6-----6-8---------3---1-3-----5-6-----6-8----|
B |-0-0-0-0-3-0-1-3-0-0-5-6-0-0-6-8-0-0-0-0-3-0-1-3-0-0-5-6-0-0-6-8----|


[Verses]

Fig 2.

C#|----------------------------------------------------------------|
G#|----------------------------------------------------------------|
E |----------------------------------------------------------------|
B |----------------------------------------------------------------|
F#|---------3---1-3------------------------3---1-3-----------------|
B |-0-0-0-0-3-0-1-3----------------0-0-0-0-3-0-1-3-----------------|


[Chorus] 

Fig 1 x4


[Bridge]

 Fig 3

C#|-----------------------------------|
G#|-----------------------------------|
E |-----------------------------------|
B |-3-3-3---3-3-3---3-3-3---3-3-3-----|
F#|-2-2-2---2-2-2---2-2-2---2-2-2-----|
B |---------------3---------------3---|


[Interlude]

Fig 4.

C#|------------------------------------------------------|
G#|------------------------------------------------------|
E |------------------------------------------------------|
B |------------------------------------------------------|
F#|-0-0-0------------0-0-1---0-0-1-----------------------|
B |-0-0-0--3b~~~~~~~-0-0-1---0-0-1-----------------------|


[Interlude]

Riff D

C#|-----------------------------------------------------|
G#|-----------------------------------------------------|
E |-----------------------------------------------------|
B |-----------------------------------------------------|
F#|-----------------------------------------------------|
B |-0-------------4------------1--------2---------------|

Half time feel

C#|-----------------------------------------------------------------|
G#|-----------------------------------------------------------------|
E |-----------------------------------------------------------------|
B |-----------------------------------------------------------------|
F#|-----------------------------------------------------------------|
B |-0-0-0-0-0-0-0-0-4-4-4-4-4-4-4-4-1-1-1-1-2-2-2-2-2-2-2-2-2-2-2-2-|


[Outro]

Fig 5.

C#|-------------------------------------------------------------------|
G#|-------------------------------------------------------------------|
E |-------------------------------------------------------------------|
B |-------------------------------------------------------------------|
F#|-0-0-0----------0-0-1---0-0-1--0-0-0-----------0-0-1---0-0-1-------|
B |-0-0-0-3b~~~~~~-0-0-1---0-0-1--0-0-0-3b~~~~~~~-0-0-1---0-0-1-------|

that’s all

trevor jones
timmy91199@yahoo.ca


            
            
Suggest correction
Creating personal tab
Creating personal tab
You can edit any tab online and save it as your Personal.

You can edit, replace or remove any tab part or add personal notes – all changes will be seen only by you.

Personal tabs can be accessed anytime from any device, even offline.
Learn more »
comments
print report bad tab
13 comments total. Showing first comments.
0 reply
M_head_666 80 Apr 29, 2002 08:00 PM

Nice work..looks like the one in the tab book:P lol ..nice 1 dude

0 reply
Tinboy 190 Jun 25, 2002 08:00 PM

again, tza. your tab book is WRONG!! this is supposed to be played way tuned down. have you actually listened to this song? does it sound like this shit that yu have written? 'knot do NOT play with drop-D tuning, they play drop-D and then another 1 1/2 steps down most of the time.

0 reply
Tinboy 190 Feb 10, 2003 07:00 PM

??? i didnt say that? is there some1 else called Tinboy?? i know its right, ive got the tab book myself.

i wish people wouldnt submit the tabs straight out of the tab books, it ruins the whole point in sites like this. this isnt to show who is the best at reading, its to show poeple songs that you have transcribed yourself.

guest
You may want to rate the tab now too:
select rating
Wanna post a correction for this tab? Suggest correction