Oops, an error
Loading. Please wait.

Gehenna intro guitar pro

version 1
version 1

Intro

Whole song

Interactive

10,699 views 1 this week
4 commentsread comments
1 2 3 4 5
x 3
add to favorites
guitar tuner
Autoscroll
slow
fast
+/-
esc
set tempo
stop
"Gehenna"
demo version
Play now

or get full version for Free

×
Get full version now!
Learn and play this song
in Tab Pro
Try for free

or get $10 off Welcome Bonus

Get welcome bonus
Get access to Tab Pro version of “Gehenna”!
Tab Pro is a premium guitar tab service, available on PC, Mac, iOS and Android
TRY FOR FREE
To download “Gehenna” Guitar Pro tab click button below
Please note that you must have Guitar Pro software installed on your
computer in order to view this file.
Suggest correction
Give kudos to tab author, rate the tab!
1 2 3 4 5
comments
report bad tab
4 comments total. Showing first comments.
0 reply
PresidentBlaBla 10 Sep 01, 2008 11:49 AM

The Drop B Tuning is right. But I play the intro in a different way. I use the powerchords: C,B,G,F and E. Look at my idea.

E E E E E E E E E E E E E E E E
C#||---------------------------|--------------------------|
G#||---------------------------|--------------------------|
E ||---------------------------|--------------------------|
B ||--5s--4--4--4--------3-----|--------1-----------0-----|
F#||--3s--2--2--2-----3--------|-----1-----1-----0-----0--|
B ||---------------3--------1--|--L-----------0-----------|

The Pre Chorus with the screaming part maybe will be played this way:

S S S S S S S S E E E E W
------------------------------|-------------------|
------------------------------|-------------------|
------------------------------|-------------------|
--1-1-1-1-1-1-1-1-1-----------|-------------------|
--1-1-1-1-1-1-1-1-1-----------|-------------------|
--1-1-1-1-1-1-1-1-1-----------|-------------------|


S S S S S S S S E E E E W
------------------------------|-------------------|
------------------------------|-------------------|
------------------------------|-------------------|
--1-1-1-1-1-1-1-1-1-----------|-------------------|
--1-1-1-1-1-1-1-1-1-----------|-------------------|
--1-1-1-1-1-1-1-1-1-----------|-------------------|


S S S S S S S S E E E E W
------------------------------|-------------------|
------------------------------|-------------------|
------------------------------|-------------------|
--1-1-1-1-1-1-1-1-1-----------|-------------------|
--1-1-1-1-1-1-1-1-1-----------|-------------------|
--1-1-1-1-1-1-1-1-1-----------|----------

0 reply
PresidentBlaBla 10 Sep 01, 2008 11:53 AM


Gehenna


Slipknot


Intro:

E E E E E E E E E E E E E E E E
C#||---------------------------|--------------------------|
G#||---------------------------|--------------------------|
E ||---------------------------|--------------------------|
B ||--5s--4--4--4--------3-----|--------1-----------0-----|
F#||--3s--2--2--2-----3--------|-----1-----1-----0-----0--|
B ||---------------3--------1--|--L-----------0-----------|


Pre Chorus:

S S S S S S S S E E E E W
------------------------------|-------------------|
------------------------------|-------------------|
------------------------------|-------------------|
--1-1-1-1-1-1-1-1-1-----------|-------------------|
--1-1-1-1-1-1-1-1-1-----------|-------------------|
--1-1-1-1-1-1-1-1-1-----------|-------------------|


S S S S S S S S E E E E W
------------------------------|-------------------|
------------------------------|-------------------|
------------------------------|-------------------|
--1-1-1-1-1-1-1-1-1-----------|-------------------|
--1-1-1-1-1-1-1-1-1-----------|-------------------|
--1-1-1-1-1-1-1-1-1-----------|-------------------|


S S S S S S S S E E E E W
------------------------------|-------------------|
------------------------------|-------------------|
------------------------------|-------------------|
--1-1-1-1-1-1-1-1-1-----------|-------------------|
--1-1-1-1-1-1-1-1-1-----------|-------------------|
--1-1-1-1-1-1-1-1-1-----------|-------------------|


S S S S S S S S S S S S S S S S E E E E E E E E
-----------------------------------|--------------------------|
-----------------------------------|--------------------------|
-----------------------------------|--------------------------|
--1-1-1-1-1-1-1-1-1-1-1-1-1-1-1-1s-|--3--3--3--3--3--3--3--3--|
--1-1-1-1-1-1-1-1-1-1-1-1-1-1-1-1s-|--3--3--3--3--3--3--3--3--|
--1-1-1-1-1-1-1-1-1-1-1-1-1-1-1-1s-|--3--3--3--3--3--3--3--3--|


E E E E E E E E E E E E E E E E
---------------------------|--------------------------|
---------------------------|--------------------------|
---------------------------|--------------------------|
--6--6--6s--5--5--5--5--5--|--3--3--3--3--3--3--3--3--|
--6--6--6s--5--5--5--5--5--|--3--3--3--3--3--3--3--3--|
--6--6--6s--5--5--5--5--5--|--3--3--3--3--3--3--3--3--|

Chorus:

E E E E E E E E E E E E E E E E
---------------------------|--------------------------|
---------------------------|--------------------------|
---------------------------|--------5-----5-----------|
--6--6--6s--5--5--5--5--5--|--3--L-----5-----5--3--3--|
--6--6--6s--5--5--5--5--5--|--3--L--------------3--3--|
--6--6--6s--5--5--5--5--5--|--3--L--------------3--3--|


E E E E E E E E H H E E E E E E E E
--------------------------|--------------------|---------------------------|
--------------------------|--------------------|---------------------------|
--------------------------|--------------------|---------------------------|
--6--------5--------5--L--|--3--------L--------|--6--L--6s--5--5--L--5--5--|
-----6--------5-----5--L--|--3--------L--------|--6--L--6s--5--5--L--5--5--|
--------6--------5--5--L--|--3--------L--------|--6--L--6s--5--5--L--5--5--|


E E E E E E E E E E E E E E E E
--------------------------|--------------------------|
--------------------------|--------------------------|
--------5-----5-----------|--------------------------|
--3--L-----5-----5--3--3--|--6--------5--------5--L--|
--3--L--------------3--3--|-----6--------5-----5--L--|
--3--L--------------3--3--|--------6--------5--5--L--|


E E E E E E E E E E E E E E E E
--------------------------|---------------------------|
--------------------------|---------------------------|
--------------------------|---------------------------|
--3--3--3--3--3--3--3--3--|--6--6--6s--5--5--5--5--5--|
--3--3--3--3--3--3--3--3--|--6--6--6s--5--5--5--5--5--|
--3--3--3--3--3--3--3--3--|--6--6--6s--5--5--5--5--5--|


E E E E E E E E E E E E E E E E H H
--------------------------|--------------------------|--------------------|
--------------------------|--------------------------|--------------------|
--------5-----5-----------|--------------------------|--------------------|
--3--L-----5-----5--3--3--|--6--------5--------5--L--|--3--------L--------|
--3--L--------------3--3--|-----6--------5-----5--L--|--3--------L--------|
--3--L--------------3--3--|--------6--------5--5--L--|--3--------L--------|


E E E E E E E E E E E E E E E E
---------------------------|--------------------------|
---------------------------|--------------------

0 reply
PresidentBlaBla 10 Sep 01, 2008 11:59 AM

sry, for 3 time postings. it's the first time I'm using the comment system. -,- cya

guest
You may want to rate the tab now too:
select rating