Oops, an error
Loading. Please wait.

Gehenna tab

version 2
version 2

Whole song

Interactive

24,413 views 15 this week
4 commentsread comments
1 2 3 4 5
x 5
add to favorites
×
Save as Personal and add changes to this tab that will be seen only by you. Learn more ›
×
You can save this tab as Personal to edit and correct it or add notes. All changes will be seen only by you. Learn more »
launch autoscroll
font size
0
reset
how to read this tab
guitar tuner
edit
Autoscroll
slow
fast
+/-
esc
set tempo
stop
Author
-------------------------------------------------------------------------------
                             "Gehenna" solo --- Slipknot
-------------------------------------------------------------------------------

Tabbed by: [travis]


Key:  F Major (F G A Bb C D E)


*Both of these solos are done by Jim Root.

*A key to playing like Jim Root is doing a lot
 of legato and being able to play 32nd notes.


Tuning: Drop A = A E A D F# B (low to high)

Legend:

... = palm mute
h = hammer on
p = pull off
b = bend
! = tremelo pick
* = pinch harmonic
.5 = half step bend
1 = whole step bend
1.5 = step and a half bend
/ = slide up
\ = slide down
h/ = pick once
p\ = pick once
~ = vibrato
__ = hold bend
() = note not picked / bring bent note back to normal



=====================================
First Solo:

Guitar 1: Tremelo pick while gradually bending the string up.
      _______________1.5_______________________
B |----------------------------------------------------------------------|
F#|----------------------------------------------------------------------|
D |-7!b----------------7!--------------7-------(7)---7-----5h7~~~~~~~~~~-|
A |----------------------------------------------------------------------|
E |----------------------------------------------------------------------|
A |----------------------------------------------------------------------|


Guitar 1:
B |----------------------------------------------------------------------------------------------|
F#|----------------------------------------------10h13h/15-13p12h13p12p11p10---------------------|
D |-------------------------------------9h10p9h10---------------------------10h12p10-9-----------|
A |10h12p10p9-10-10p9h10p9h10h12p10p9-11----------------------------------------------12p10h12h13|
E |----------------------------------------------------------------------------------------------|
A |----------------------------------------------------------------------------------------------|


Guitar 1:
                                    1___                               1____
B |-12h13p12-13p12-13p12-13p12--12-----------------------------------------------------------|
F#|---------------------------15--15b---(15)p13~~~~13h15p12h13p12--12------------------------|
D |--------------------------------------------------------------14--14b----(14)-12h14~~~~~~~|
A |------------------------------------------------------------------------------------------|
E |------------------------------------------------------------------------------------------|
A |------------------------------------------------------------------------------------------|


Guitar 1:
B |---------------12h13p12-13h15h/17p\15p13p12-13p12--12--------12h13p12-----------12h13p12-|
F#|-------12h13p12----------------------------------12--15p13p12--------15-13p12h13---------|
D |-/12-12----------------------------------------------------------------------------------|
A |-----------------------------------------------------------------------------------------|
E |-----------------------------------------------------------------------------------------|
A |-----------------------------------------------------------------------------------------|


Guitar 1:
B |-----------------------------------------------------------------------------------|
F#|-15p13p12-----12h13p12-10----------------------------------------------------------|
D |---------14p12-----------12-10h12p10p\9h10p9-------9h10p9-12-9-10-10h/14~~~~~~~~~~-|
A |--------------------------------------------10-10p9--------------------------------|
E |-----------------------------------------------------------------------------------|
A |-----------------------------------------------------------------------------------|


Guitar 1:
B |---------------------------------------------------------------------12h/15-|
F#|---------------------------------------------15h/18p17-17p15-15p13~~~-------|
D |----------------------------------------------------------------------------|
A |----------------------------------------------------------------------------|
E |-19-20-19-20h/22p\20-19-20-19h20p19-17h19-20--------------------------------|
A |----------------------------------------------------------------------------|


Guitar 1:
B |-15-13-13-12-12h13p12---------------------------------17---------------------------------|
F#|----------------------15-----17-------20~~~~-17-------------20------17-------18p17-------|
D |-------------------------17*----17--------------17---------------------17----------17----|
A |-----------------------------------19--------------19----19------19-------19----------19-|
E |-----------------------------------------------------------------------------------------|
A |-----------------------------------------------------------------------------------------|


Guitar 1:
B |-19-------------19----19----19--------19----19--------19--------------------|
F#|-------------------18----20----20h/22----20-----------------17p16p15~~~~~~~~|
D |-----17--19h/21--------------------------------21p\19----19-----------------|
A |----------------------------------------------------------------------------|
E |----------------------------------------------------------------------------|
A |----------------------------------------------------------------------------|

End of First Solo.
======================================
Second Guitar Solo:

Guitar 1:
B |17-------------------------------------------------------------------------------------------|
F#|---17-17p\15h/17p\15-------------------------------------------------------------------------|
D |--------------------14h15p14h15p14h15p14h15p14h15--------------------------------------------|
A |-------------------------------------------------14h15p14h15p14h15p14h15p14h15p14h15p14h15p14|
E |---------------------------------------------------------------------------------------------|
A |---------------------------------------------------------------------------------------------|

Guitar 1:
B |-----17----------------------------------------------------------------------------------|
F#|--------17-17p\15h/17p\15----------------------------------------17----17----17----17----|
D |-/14---------------------14h15p14h15p14h15p14h15p14h15-----------------------------------|
A |------------------------------------------------------14h15p14h15---15----15----15----15-|
E |-----------------------------------------------------------------------------------------|
A |-----------------------------------------------------------------------------------------|

Guitar 1:
B |----------/18-17-----------------------------------------------17h18-17h18-17h18-17h18-17h18-|
F#|-17h18p17--------17-17p\15h/17p\15-----------------------------------------------------------|
D |----------------------------------14h15p14h15p14h15-14h15-14h15------------------------------|
A |---------------------------------------------------------------------------------------------|
E |---------------------------------------------------------------------------------------------|
A |---------------------------------------------------------------------------------------------|

Guitar 1:
B |-17h18-17h18-17h18-17--------------------------------------------17h18-17h18-17h18-17h18-17h18-|
F#|----------------------17-17p\15h/17p\15--------------------------------------------------------|
D |---------------------------------------14h15p14h15p14h15p14h15p14------------------------------|
A |-----------------------------------------------------------------------------------------------|
E |-----------------------------------------------------------------------------------------------|
A |-----------------------------------------------------------------------------------------------|

Guitar 1:
B |-17h18-17h18-17h18-17p\12-12-10h12-10~~~~~~~~~~~14-------------14--------------14-------------|
F#|---------------------------------------------------18~~~~~~~~~~---18~~~~~~~~~~~---18~~~~~~~~~~|
D |----------------------------------------------------------------------------------------------|
A |----------------------------------------------------------------------------------------------|
E |----------------------------------------------------------------------------------------------|
A |----------------------------------------------------------------------------------------------|

That's It.
Please Rate and Comment.
[travis]

            
            
Suggest correction
Creating personal tab
Creating personal tab
You can edit any tab online and save it as your Personal.

You can edit, replace or remove any tab part or add personal notes – all changes will be seen only by you.

Personal tabs can be accessed anytime from any device, even offline.
Learn more »
comments
print report bad tab
4 comments total. Showing first comments.
+1 reply
thezohan 374 Jun 22, 2009 12:12 PM

dude you don't know how thankful i am 5 star

+1 reply
[travis] 2,913 Jun 22, 2009 04:58 PM

Thanks man, it's not one of my favorite solos, I mostly like the Dead Memories solo. I'm really glad Jim Root had most of the solos on the new record.

+1 reply
thezohan 374 Jun 28, 2009 05:41 AM

yeah hes a good guitarist

guest
You may want to rate the tab now too:
select rating
Wanna post a correction for this tab? Suggest correction