Oops, an error
Loading. Please wait.

Gematria tab

version 1
version 1

Whole song

Interactive

76,406 views 36 this week
8 commentsread comments
1 2 3 4 5
x 18
add to favorites
×
Save as Personal and add changes to this tab that will be seen only by you. Learn more ›
×
You can save this tab as Personal to edit and correct it or add notes. All changes will be seen only by you. Learn more »
launch autoscroll
font size
0
reset
how to read this tab
guitar tuner
edit
Autoscroll
slow
fast
+/-
esc
set tempo
stop
Slipknot - Gematria (The Killing Name)
Tuning: Drop B
Tabbed by: Billybusa (Me)

C#||----------------------------------------------|
G#||----------------------------------------------|
E ||----------------------------------------------|
B ||--4----3--------------------------------------|
F#||--2----1-------2----3-------7h8p7-6h7p6-5h6p5-|
B ||----0----0--0--2-0--3-0--0--------------------|
        .    .  .    .    .  .

----------------------------------------------------|
----------------------------------------------------|
----------------------------------------------------|
--4----3--------------------------------------------|
--2----1-------2----3-------5h6p5-------4h5p4-2h3p2-|
----0----0--0--2-0--3-0--0--------0--0--------------|
    .    .  .    .    .  .        .  .

-----------------------------------------|
-----------------------------------------|
-----------------------------------------|
------------------5--------4-------------|
------------------6--------5--------2/3--|
----2h3p2---0--0-----0--0-----0--0--2/3--|
            .  .     .  .     .  .

-------------------------------------|
-------------------------------------|
-------------------------------------|
--------3/4--------------------------|
--------1/2------7h8p7---------6h7p6-|
--0--0-------0-0-------7h8p7---------|
  .  .
                                                  4x
||------------------------------------------------||
||------------------------------------------------||
||*----------------------------------------------*||
||*--------4----3--------------------------------*||
||---------2----1-------2----3--------------------||
||---0--0----0----0--0--2-0--3-0--0--0--0--5h8p5--||
     .  .    .    .  .    .    .  .  .  .

---------------------------------------||----------------------------------|
---------------------------------------||----------------------------------|
*-------------------------------------*||----------------------------------|
*-------------------------------------*||-------------------------------5--|
---------9--8----2--3------------------||--------9--8----2--3-----------6--|
---0--0--9--8----2--3--0--0--0--5h8p5--||--0--0--9--8----2--3--0--0--0-----|
   .  .                .  .  .             .  .                .  .  .

-----------------------------------------|
-----------------------------------------|
-----------------------------------------|
--------4------------------3/4--------5--|
--------5--------2/3-------1/2--------6--|
--0--0-----0--0--2/3-0--0-------0--0-----|
  .  .     .  .      .  .       .  .

------------------------------------------|------------------------------|
------------------------------------------|------------------------------|
------------------------------------------|------------------------------|
--------4------------------3/4--------5---|--------4---------------------|
--------5--------2/3-------1/2--------6---|--------5--------3/4\2/3-1/2--|
--0--0-----0--0--2/3-0--0-------0--0------|--0--0-----0--0--3/4\2/3-1/2--|
  .  .     .  .      .  .       .  .         .  .     .  .

                                                  4x
|-------------------------------------------------||
|-------------------------------------------------||
|*-----------------------------------------------*||
|*-----------------------------------------------*||
|---0h1---------------------0h1--------------2h3--||
|---0h1-0--<>2-0--<>5-0--0--0h1-0--<>3-0--0--2h3--||
        .      .      .  .      .      .  .

-----------------------------------------|
-----------------------------------------|
-----------------------------------------|
--------------4--------------------------|
--0h1----2----2-------0h1----2----6----3-|
--0h1-0--2-0----0--0--0h1-0--2-0--6-0--3-|
      .    .    .  .      .    .    .

-------------------------------------|
-------------------------------------|
-------------------------------------|
--------------4----------------------|
--0h1----2----2--------------3-------|
--0h1-0--2-0----0--0--<>2------<>3---|
      .    .    .  .

-----------------------------------------|
-----------------------------------------|
-----------------------------------------|
--------------4--------------------------|
--0h1----2----2-------0h1----2----6----3-|
--0h1-0--2-0----0--0--0h1-0--2-0--6-0--3-|
      .    .    .  .      .    .    .

----------------------------------------------|
----------------------------------------------|
----------------------------------------------|
--------------4-------------------------------|
--0h1----2----2-------5--6--4--4--3--3--2--2--|
--0h1-0--2-0----0--0--5--6--4--4--3--3--2--2--|
      .    .    Pm------------------------->

-----------------------------------------|
-----------------------------------------|
-----------------------------------------|
--------------4--------------------------|
--0h1----2----2-------0h1----2----6----3-|
--0h1-0--2-0----0--0--0h1-0--2-0--6-0--3-|
      .    .    .  .      .    .    .

-------------------------------------|
-------------------------------------|
-------------------------------------|
--------------4----------------------|
--0h1----2----2--------------3-------|
--0h1-0--2-0----0--0--<>2------<>3---|
      .    .    .  . 

-----------------------------------------|------------------------------|
-----------------------------------------|------------------------------|
-----------------------------------------|------------------------------|
--------------4--------------------------|--------------4---------------|
--0h1----2----2-------0h1----2----6----3-|--0h1----2----2-------2/12\2--|
--0h1-0--2-0----0--0--0h1-0--2-0--6-0--3-|--0h1-0--2-0----0--0--2/12\2--|
      .    .    .  .      .    .    .           .    .    .  .

------------------------------|------------------------------------|
------------------------------|----------------------------9-9-8-8-|
------------------------------|------------------------------------|
--5--5----------4--4----------|--5--5----------6--7--6--5----------|
--3--3-6--6-5-0-2--2-6--6-5-0-|--3--3-6--6-5-0---------------------|
-------6--6-5-0------6--6-5-0-|-------6--6-5-0---------------------|
                                               Pm-------->
                                                                        4x
|-------------------------------------------||--------------------------||
|-------------------------------------------||--------------------------||
|*-----------------------------------------*||*------------------------*||
|*--------------4--------------------------*||*------------------------*||
|---0h1----2----2-------0h1----2----6----3--||-----------3----------7---||
|---0h1-0--2-0----0--0--0h1-0--2-0--6-0--3--||---0---1-------3---6------||
        .    .    .  .      .    .    .         Tp------------------->

------------------------------|------------------------------------|
------------------------------|----------------------------9-9-8-8-|
------------------------------|------------------------------------|
--5--5----------4--4----------|--5--5----------6--7--6--5----------|
--3--3-6--6-5-0-2--2-6--6-5-0-|--3--3-6--6-5-0---------------------|
-------6--6-5-0------6--6-5-0-|-------6--6-5-0---------------------|
                                               Pm-------->

------------------------------|-------------------------------------|
------------------------------|-------------------------------------|
------------------------------|-------------------------------------|
--5--5----------4--4----------|--5--5-------------------------------|
--3--3-6--6-5-0-2--2-6--6-5-0-|--3--3-6--6-5-0-------------------1--|
-------6--6-5-0------6--6-5-0-|-------6--6-5-0-5--6--5--3--4--2--1--|
                                               Pm-------------->

-----------------------------------|-----------------------------------|
-----------------------------------|-----------------------------------|
-----------------------------------|-----------------------------------|
-----------------------------------|--------------------------------8--|
--0--5--6--5--5--6--5--4--5--4--1--|--0--5--6--5--5--6--5--4--5--4--6--|
--0--5--6--5--5--6--5--4--5--4--1--|--0--5--6--5--5--6--5--4--5--4-----|
              Pm-------------->                   Pm------------->

-----------------------------------|------------------------------|
-----------------------------------|------------------------------|
-----------------------------------|------------------------------|
--7--------------------------------|--------------8-7-5---7-5-----|
--5--5--6--5--5--6--5--4--5--4--1--|--0--5--6--5--------6-----6-5-|
-----5--6--5--5--6--5--4--5--4--1--|--0--5--6--5------------------|
              Pm------------->             

-----------------------------------|-----------------------------------|
-----------------------------------|-----------------------------------|
-----------------------------------|-----------------------------------|
-----------------------------------|--------------------------------8--|
--0--5--6--5--5--6--5--4--5--4--1--|--0--5--6--5--5--6--5--4--5--4--6--|
--0--5--6--5--5--6--5--4--5--4--1--|--0--5--6--5--5--6--5--4--5--4-----|
              Pm-------------->                   Pm-------------->

-----------------------------------|-----------------|
-----------------------------------|-----------------|
-----------------------------------|-----------------|
--7--------------------------------|--------------7--|
--5--5--6--5--5--6--5--4--5--4--1--|--0--5--6--5--5--|
-----5--6--5--5--6--5--4--5--4--1--|--0--5--6--5-----|
              Pm-------------->

-----------------------------------|-----------------------------------|
-----------------------------------|-----------------------------------|
-----------------------------------|-----------------------------------|
--------------------------------8--|--7-----------------------------8--|
--0--5--6--5--5--6--5--4--5--4--6--|--5--5--6--5--5--6--5--4--5--4--6--|
--0--5--6--5--5--6--5--4--5--4-----|-----5--6--5--5--6--5--4--5--4-----|
              Pm-------------->                   Pm------------->

-----------------------------------|-------------------------------|
-----------------------------------|-------------------------------|
-----------------------------------|-------------------------------|
--7-----------------------------8--|--7----------------------------|
--5--5--6--5--5--6--5--4--5--4--6--|--5--5--6--5-------------------|
-----5--6--5--5--6--5--4--5--4-----|-----5--6--5--<>6~----<>3br----|
              Pm------------->

-----------------------------------|-----------------------------------|
-----------------------------------|-----------------------------------|
-----------------------------------|-----------------------------------|
--------------------------------8--|--7-----------------------------8--|
--0--5--6--5--5--6--5--4--5--4--6--|--5--5--6--5--5--6--5--4--5--4--6--|
--0--5--6--5--5--6--5--4--5--4-----|-----5--6--5--5--6--5--4--5--4-----|
              Pm-------------->                   Pm-------------->

-----------------------------------|-------------------------------|-------|
-----------------------------------|-------------------------------|-------|
-----------------------------------|-------------------------------|-------|
--7-----------------------------8--|--7----------------------------|-------|
--5--5--6--5--5--6--5--4--5--4--6--|--5--5--6--5-------------------|-------|
-----5--6--5--5--6--5--4--5--4-----|-----5--6--5--<>6~----<>3br----|-------|
              Pm------------->

First part of solo:
--18-19-16-16-18----19-18-18-19-18----19-18----18-19-16-------18-19-16----18-19-
-----------------19----------------19-------18----------18-19----------18-------
--------------------------------------------------------------------------------
--------------------------------------------------------------------------------
--------------------------------------------------------------------------------
--------------------------------------------------------------------------------

--20-19-17-------------------------18-16-15-------------------18-19-16-17-------
-----------16-16-17-19-19-17-16-16----------16-16-17-19-17-16-------------16-17-
--------------------------------------------------------------------------------
--------------------------------------------------------------------------------
--------------------------------------------------------------------------------
--------------------------------------------------------------------------------

------------------------------|
------------------------------|
--15brb-----------------------|
---------------16brb----------|
------------------------------|
------------------------------|
Repeat this for a while:
--------------------------|-------------------------|
--------------------------|-------------------------|
--7--5--7--8--7--5--7--8--|--7--5--7--8--10----5----|
--------------------------|-------------------------|
--5--3--5--6--5--3--5--6--|--5--3--5--6---8----3----|
--------------------------|-------------------------|

--------------------------------|----------------------------|
--------------------------------|----------------------------|
--10--9--10--12--10--9--10--12--|--10--9--10--12--14----9----|
--------------------------------|----------------------------|
---8--7---8--10---8--7---8--10--|---8--7---8--10--12----7----|
--------------------------------|----------------------------|

-----------------------------------|-----------------------------------|
-----------------------------------|-----------------------------------|
-----------------------------------|-----------------------------------|
--------------------------------8--|--7-----------------------------8--|
--0--5--6--5--5--6--5--4--5--4--6--|--5--5--6--5--5--6--5--4--5--4--6--|
--0--5--6--5--5--6--5--4--5--4-----|-----5--6--5--5--6--5--4--5--4-----|
              Pm-------------->                   Pm------------->

-----------------------------------|--------------------------|
-----------------------------------|--------------------------|
-----------------------------------|--------------------------|
--7-----------------------------8--|--7-----------------------|
--5--5--6--5--5--6--5--4--5--4--6--|--5--5--6--5/6----2--2--1-|
-----5--6--5--5--6--5--4--5--4-----|-----5--6--5/6----2--2--1-|
              Pm------------->                        .  . 

|----------------------------------|
|----------------------------------|
|------------4---------------------|
|------------2---------------------|
|--0-0-0-1-----0-0-1-0-0-6-0-0-0-0-|
|--0-0-0-1-0---0-0-1-0-0-6-0-0-0-0-|
   . . .   .   . .   . .   . . . . 
                                                                     4x
|-------------------------------|-------------------------------------||
|-------------------------------|----------------------------9-9-8-8--||
|*------------------------------|------------------------------------*||
|*--5--5----------4--4----------|--5--5----------6--7--6--5----------*||
|---3--3-6--6-5-0-2--2-6--6-5-0-|--3--3-6--6-5-0----------------------||
|--------6--6-5-0------6--6-5-0-|-------6--6-5-0----------------------||
                                                 Pm--------->

-----------------------------------|-----------------------------------|
-----------------------------------|-----------------------------------|
-----------------------------------|-----------------------------------|
-----------------------------------|--------------------------------8--|
--0-----------5--6--5--4--5--4--1--|--0-----------5--6--5--4--5--4--6--|
--0-----------5--6--5--4--5--4--1--|--0-----------5--6--5--4--5--4-----|
              Pm-------------->                   Pm-------------->

------------------------------------|--------------------------------------|
------------------------------------|--------------------------------------|
------------------------------------|--------------------------------------|
--7---------------------------------|--------------------------------------|
--5-----------0--0--0--0--0--0--0-0-|--0--0--5--6--5--5--6--5--4--5--4--1--|
--------------0--0--0--0--0--0--0-0-|--0--0--5--6--5--5--6--5--4--5--4--1--|
              Pm-------------------------------------------------------->

--------------------------------------|-----------------------------------|
--------------------------------------|-----------------------------------|
--------------------------------------|-----------------------------------|
-----------------------------------8--|--7--------------------------------|
--0--0--5--6--5--5--6--5--4--5--4--6--|--5--5--6--5--5--6--5--4--5--4--1--|
--0--0--5--6--5--5--6--5--4--5--4-----|-----5--6--5--5--6--5--4--5--4--1--|
  .  .           Pm------------->                    Pm-------------->

--------------------------------------|-------------------------------|-------|
--------------------------------------|-------------------------------|-------|
--------------------------------------|-------------------------------|-------|
-----------------------------------8--|--7----------------------------|-------|
--0--0--5--6--5--5--6--5--4--5--4--6--|--5--5--6--5-------------------|-------|
--0--0--5--6--5--5--6--5--4--5--4-----|-----5--6--5--<>6~----<>3br----|-------|
  .  .           Pm-------------->

|----------------------------------||
|----------------------------------||
|------------4---------------------||
|------------2---------------------||
|--0-0-0-1-----0-0-1-0-0-6-0-0-0-0-||
|--0-0-0-1-0---0-0-1-0-0-6-0-0-0-0-||
   . . .   .   . .   . .   . . . .

            
            
Suggest correction
Creating personal tab
Creating personal tab
You can edit any tab online and save it as your Personal.

You can edit, replace or remove any tab part or add personal notes – all changes will be seen only by you.

Personal tabs can be accessed anytime from any device, even offline.
Learn more »
comments
print report bad tab
8 comments total. Showing first comments.
+3 reply
\m/(-_-)\m/ 175 Sep 12, 2008 06:36 PM

THANK YOU FOR THE TAB OMG! YES! XD

+3 reply
Chaz-6(sic)6 172 Sep 18, 2008 12:19 PM

Not Bad At All. 4 Stars.

+3 reply
Survivalism 474 Oct 25, 2008 01:39 AM

Basically, all these riffs need correcting:


||------------------------------------------------|
||------------------------------------------------|
||------------------------------------------------|
||-----4----3-------------------------------------|
||-----2----1--------2---3------7h8p7-6h7p6-5h6p5-|
||-0-0----0----0--0--2-0-3-0--0-------------------|


----------------------------------------------------------------------|
----------------------------------------------------------------------|
----------------------------------------------------------------------|
-----4----3-----------------------------------------------------------|
-----2----1--------2----3-------5h6p5-----4h5p4-----3h4p3-------------|
-0-0----0----0--0--2-0--3-0--0--------0-0-------0-0-------4h5p4-3h4p3-|


------------------------------------|
------------------------------------|
------------------------------------|
--------3/4-------------------------|
--------1/2------7h8p7--------6h7p6-|
--0--0-------0-0-------9h10p9-------|


||------------------------------------------------||
||------------------------------------------------||
||*----------------------------------------------*||
||*--------4----3--------------------------------*||
||---------2----1-------2----3--------------------||
||---0--0----0----0--0--2-0--3-0--0--5--8--5h8p5--||


||-----------------------------------------------||
||-----------------------------------------------||
||*---------------------------------------------*||
||*--------4----3-------------------------------*||
||---------2----1-------2----3------------4h5p4--||
||---0--0----0----0--0--2-0--3-0--0--5--8--------||


-------------------------|
-------------------------|
-------------------------|
--5-----4----------------|
--6-----5-----2/3\1/2-0--|
----0-0---0-0-2/3\1/2-0--|


|-------------------------------------||
|-------------------------------------||
|*-----------------------------------*||
|*-----------------------------------*||
|-----------2*------------------------||
|-0-0-0-1-0----0-0-1-0-0-6*-0-0-0h1p0-||
. . . . . . . . .


-----------------------------------------------------------|
-----------------------------------------------------------|
-----------------------------------------------------------|
-----------4-------------------------------4---3*----------|
-0-----1---2-----1-----6-----0h1p0-----1---2------------3*-|
-0-0-0-1-0---0-0-1-0-0-6-0-0-0h1p0-0-0-1-0---0----3p2p0----|


-------------------------------------------------------|
-------------------------------------------------------|
-------------------------------------------------------|
-----------4-------------------------------------------|
-0-----1---2-3-2-0-----6-----0h1p0---------------------|
-0-0-0-1-0---3-2-0-0-0-6-0-0-0h1p0-0-0-6-6-5-5-3-3-1-1-|


--------------------------------------------------------------|
------------------------------------------------------9-9-8-8-|
--------------------------------------------------------------|
-5--5-----------4--4------------5--5----------6-6-5-5---------|
-3--3--6-6-5-0--2--2--6--6-5-0--3--3-6--6-5-0-----------------|
-------6-6-5-0--------6--6-5-0-------6--6-5-0-----------------|


----------------------------------| |-----------------------------------|
----------------------------------| |-----------------------------------|
----------------------------------| |-----------------------------------|
----------------------------------| |-0000000011112222--------66665555--|
-------------2222------------6666-| |-----------------22222222----------|
-000000001111-----222222226666----| |-----------------------------------|


--------------------------------| |---------------------------------|
--------------------------------| |---------------------------------|
--------------------------------| |---------------------------------|
--------------------------------| |-----------------------------8-7-|
-----5---6---5------------------| |-----5---6---5---------------6-5-|
-0-0-5-0-6-0-5-0-5-6-5-0-3-0-1--| |-0-0-5-0-6-0-5-0-5-6-5-0-3-0-----|


Completely missed solo rhythm:
----------------------------------------------------------------|
----------------------------------------------------------------|
----------------------------------------------------------------|
--------------------------------------------------------11-10-9-|
-8----------------------------8--------------11-11-10-9---------|
-8--8-8-8-8-8-9-9-9-9-6-6-6-6-8--8-8-8-8-8-8--------------------|

------------------------------------------------------------|
------------------------------------------------------------|
------------------------------------------------------------|
------------------------------------------------------------|
-0--------------6--------------5--------------8------3------|
-0--0-0-0-0-0-0-6--6-6-6-6-6-6-5--5-5-5-5-5-5-8--8-8-3--3-3-|

guest
You may want to rate the tab now too:
select rating
Wanna post a correction for this tab? Suggest correction