Oops, an error
Loading. Please wait.

Gematria tab

version 2
version 2

Whole song

Interactive

41,488 views 42 this week
13 commentsread comments
1 2 3 4 5
x 26
add to favorites
×
Save as Personal and add changes to this tab that will be seen only by you. Learn more ›
×
You can save this tab as Personal to edit and correct it or add notes. All changes will be seen only by you. Learn more »
launch autoscroll
font size
0
reset
how to read this tab
guitar tuner
edit
Autoscroll
slow
fast
+/-
esc
set tempo
stop
Author
/Gematria (The Killing Name)/

/Slipknot/

/tabbed by rongold360/

/To the best of my abilities./

/Drop B: Drop D tuning then 1 and 1/2 steps lower./

*Side note: There is a solo.

**Update: 12/5/09: Added the solo.

**Update: 5/25/09: Took away pointless spaces, cleaned it up a little bit.

/Guitar 1: James Root./
/Guitar 2: Mick Thomson./

INTRO

 Gtr. 1
/----------------------------------------------------------------/
/----------------------------------------------------------------/
/----------------------------------------------------------------/
/-------4---3---------------2h3p2h3-1h2p1h2-0h1p0h1--------------/
/-------2---1-----2---3------------------------------------------/
/---0-0---0---0-0-2-0-3-0-0--------------------------------------/

 Gtr. 2
/----------------------------------------------------------------/
/----------------------------------------------------------------/
/----------------------------------------------------------------/
/---------------------------2h3p2h3-1h2p1h2-0h1p0h1--------------/
/----------------------------------------------------------------/
/----------------------------------------------------------------/

 Gtr. 1
/----------------------------------------------------------------/
/----------------------------------------------------------------/
/----------------------------------------------------------------/
/--4---3---------------------------------------------------------/
/--2---1-----2-0-3-----5h6p5-----4h5p4-----3h4p3-----------------/
/----0---0-0-2-0-3-0-0-------0-0-------0-0-------5h6p5-4h5p4p0---/

 Gtr. 2
/----------------------------------------------------------------/
/----------------------------------------------------------------/
/----------------------------------------------------------------/
/----------------------------------------------------------------/
/----------------------5h6p5-----4h5p4-----3h4p3-----------------/
/----------------------------0-0-------0-0-------5h6p5-4h5p4-----/

 Gtr. 1
/----------------------------------------------------------------/
/----------------------------------------------------------------/
/----------------------------------------------------------------/
/---5-----4-------------3/4--------------------------------------/
/---6-----5-----2/3-----1/2-----7h8p7h8---------6h7p6h7----------/
/-----0-0---0-0-2/3-0-0-----0-0---------7h8p7h8------------------/

 Gtr. 2
/----------------------------------------------------------------/
/----------------------------------------------------------------/
/----------------------------------------------------------------/
/----------------------------------------------------------------/
/-------------------------------7h8p7h8---------6h7p6h7----------/
/---------------------------------------7h8p7h8------------------/

 Gtr. 1 and 2
/----------------------------------------------------------------/
/----------------------------------------------------------------/
/----------------------------------------------------------------/
/-------4---3---------------2h3p2h3-1h2p1h2-0h1p0h1--------------/
/-------2---1-----2---3------------------------------------------/
/---0-0---0---0-0-2-0-3-0-0--------------------------------------/

/----------------------------------------------------------------/
/----------------------------------------------------------------/
/----------------------------------------------------------------/
/--4---3---------------------------------------------------------/
/--2---1-----2-0-3-----5h6p5-----4h5p4-----3h4p3-----------------/
/----0---0-0-2-0-3-0-0-------0-0-------0-0-------5h6p5-4h5p4p0---/

/----------------------------------------------------------------/
/----------------------------------------------------------------/
/----------------------------------------------------------------/
/---5-----4-------------3/4--------------------------------------/
/---6-----5-----2/3-----1/2-----7h8p7h8---------6h7p6h7----------/
/-----0-0---0-0-2/3-0-0-----0-0---------7h8p7h8------------------/

 Gtr. 1
/----------------------------------------------------------------/
/----------------------------------------------------------------/
/----------------------------------------------------------------/
/-------4---3----------------------------------------------------/
/-------2---1-----2-3------4-7-4h5p4h5---------------------------/
/---0-0---0---0-0-2-3-0-0----------------------------------------/

 Gtr. 2
/----------------------------------------------------------------/
/----------------------------------------------------------------/
/----------------------------------------------------------------/
/-------4---3----------------------------------------------------/
/-------2---1-----2-3--------------------------------------------/
/---0-0---0---0-0-2-3-0-0--5-8-4h7p4h7---------------------------/

 Gtr. 1 and 2
/----------------------------------------------------------------/
/----------------------------------------------------------------/
/----------------------------------------------------------------/
/-------4-3------------------------------------------------------/
/-------2-1---2-3-0-5--------------------------------------------/
/---0-0-----0-2-3-0-5-8-4h7p4h7----------------------------------/

/----------------------------------------------------------------/
/----------------------------------------------------------------/
/-------5-----4--------------------------------------------------/
/-------5-----4-------------3/4----------------------------------/
/-------6-----5-----2/3-----1/2----------------------------------/
/---0-0---0-0---0-0-2/3-0-0--------------------------------------/

PRE-VERSE

 Gtr. 1, Gtr. 2 enters 3rd time
/----------------------------------------------------------------/
/----------------------------------------------------------------/
/----------------------------------------------------------------/
/----------------------------------------------------------------/
/----------------------------------------------------------------/
/---0-0-0-1-0-1.75*-0-0-1-0-0-3*-0-0-0h1-------------------------/
 [pinch harmonic located approx. 3/4 the distance between 1st and 2nd frets.]

VERSE

 Gtr. 1 and 2
/----------------------------------------------------------------/
/----------------------------------------------------------------/
/----------------------------------------------------------------/
/-------------4--------------------------------------------------/
/---0-----1---2-----6-----0h1------------------------------------/
/---0-0-0-1-0---0-0-6-0-0-0h1------------------------------------/

 Gtr. 1 [During verse, you can hear for time]
/----------------------------------------------------------------/
/----------------------------------------------------------------/
/----------------------------------------------------------------/
/----------------------------------------------------------------/
/---2*b-2p0-----3p2----------------------------------------------/
/-----------2p0--------------------------------------------------/

 Gtr. 1 and 2 [Again, listen for when to play]
/----------------------------------------------------------------/
/----------------------------------------------------------------/
/-----------5-5-3-3----------------------------------------------/
/---6-6-5-5-3-3-1-1----------------------------------------------/
/---6-6-5-5-3-3-1-1----------------------------------------------/
/---6-6-5-5-3-3-1-1----------------------------------------------/

INTERLUDE

 Gtr. 1
/----------------------------------------------------------------/
/---------------------------------------------------9-9-8-8------/
/-----5-5----------4-4----------5-5------------------------------/
/-----5-5-6--------4-4-6--------5-5-6-6--------------------------/
/---0-3-3-6------0-2-2-6------0-3-3-6-6-----9-9-8-8--------------/
/---0-----6-5p0--0-----6-5p0--0-----6-6-5p0----------------------/

/----------------------------------------------------------------/
/----------------------------------------------------------------/
/-----5-5----------4-4----------5-5------------------------------/
/-----5-5-6--------4-4-6--------5-5-6-6-5-5-------10\------------/
/---0-3-3-6------0-2-2-6------0-3-3-6-6-5-5-6-5-3-10\------------/
/---0-----6-5p0--0-----6-5p0--0-----6-6-5-5-6-5-3----------------/

VERSE

PRE-CHORUS

 Gtr. 1
/---------------------------------------------------------------------/
/---------------------------------------------------------------------/
/---------------------------------------------------------------------/
/---0-0-0-0-0-0-1-1-1-1-1-1-2-2-2-2-------------6-6-6-6-6-6-5-5-5-5---/
/-----------------------------------2-2-2-2-2-2-----------------------/
/---------------------------------------------------------------------/

 Gtr. 2
/---------------------------------------------------------------------/
/---------------------------------------------------------------------/
/---------------------------------------------------------------------/
/---------------------------------------------------------------------/
/---------------------------1-1-1-1-------------------------6-6-6-6---/
/---0-0-0-0-0-0-1-1-1-1-1-1---------2-2-2-2-2-2/6-6-6-6-6-6-----------/

REPEAT PRE-CHORUS AS CHORUS

INTERLUDE

 Gtr. 1
/----------------------------------------------------------------/
/----------------------------------------------------------------/
/----------------------------------------------------------------/
/----------------------------------------------------------------/
/---0-0-5-0-6-0-5--5-6-5-0-3-0-1---------------------------------/
/---0-0-5-0-6-0-5--5-6-5-0-3-0-1---------------------------------/

 Gtr. 2
/----------------------------------------------------------------/
/----------------------------------------------------------------/
/----------------------------------------------------------------/
/---0------------------------------------------------------------/
/---0--------------5-6-5-0-3-0-1---------------------------------/
/---0--------------5-6-5-0-3-0-1---------------------------------/

NEXT CHORUS

Gtr. 1 and 2
/----------------------------------------------------------------/
/----------------------------------------------------------------/
/--------------------------8-7-----------------------------------/
/--------------------------6-7-----------------------------------/
/---0-0-5--6--5--5-6-5-0-3-6-5-----------------------------------/
/---0-0-5--6--5--5-6-5-0-3---------------------------------------/

 The rest is BASICALLY the same as previous riffs.

SOLO

 Are you ready?

 Gtr. 1
/---18-19-16-16-18----19-18-18-19-16-19-18-17-16-19-18-16--------/
/------------------19--------------------------------------------/
/----------------------------------------------------------------/
/----------------------------------------------------------------/
/----------------------------------------------------------------/
/----------------------------------------------------------------/

/---18-19-18-16----18-17-16-16-20-18-16-17-19-17----------18-18--/
/---------------19-------------------------------20-19-18--------/
/----------------------------------------------------------------/
/----------------------------------------------------------------/
/----------------------------------------------------------------/
/----------------------------------------------------------------/

 Gtr. 2 and 3 (3 is bonus)
/----------------------------------------------------------------/
/----------------------------------------------------------------/
/----------------------------------------------------------------/
/----------------------------------------------------------------/
/---8---8--8--8--8--8--8----9---9--9--9--6--6--6--6--------------/
/---8---8--8--8--8--8--8----9---9--9--9--6--6--6--6--------------/
 [Listen for pattern.]

 Gtr. 1
/---16-------------------------------------------------18--------/
/------18-18-16-16-18-19-18-16-19-19-18-18-16-16-18-19-----------/
/----------------------------------------------------------------/
/----------------------------------------------------------------/
/----------------------------------------------------------------/
/----------------------------------------------------------------/

/---18-16--------------------------------------------------------/
/---------19-18-16----16-18--------------------------------------/
/------------------18-------18-16-15-16-15----18-16-15-15--------/
/------------------------------------------18--------------------/
/----------------------------------------------------------------/
/----------------------------------------------------------------/

 Gtr. 2
/----------------------------------------------------------------/
/----------------------------------------------------------------/
/----------------------------------------------------------------/
/--------------------------------------11-10-9-------------------/
/---8---8--8--8--8--8--8----12-11-10-9---------------------------/
/---8---8--8--8--8--8--8-----------------------------------------/

 Gtr. 3
/----------------------------------------------------------------/
/----------------------------------------------------------------/
/----------------------------------------------------------------/
/----------------------------------------------------------------/
/---8---8--8--8--8--8--8----9---9--9--9--11--11--11--11----------/
/---8---8--8--8--8--8--8----9---9--9--9--11--11--11--11----------/

 Gtr. 1                                    [Bend 1 and 1/2 step.]
/---------------------15/19----18~--------19-19b------18-----5---/
/-------------------------------------21------------------6------/
/-------------------------------------------------5/7------------/
/---15----13----12-----------------------------------------------/
/----------------------------------------------------------------/
/----------------------------------------------------------------/

 Gtr. 2 and 3
/-------------------------------------------------------------------/
/-------------------------------------------------------------------/
/-------------------------------------------------------------------/
/-------------------------------------------------------------------/
/---8--8-8-8-8-8-8--9-9-9-9--6-6-6-6--8--8-8-8-8-8-8--9-9-9-9-11----/
/---8--8-8-8-8-8-8--9-9-9-9--6-6-6-6--8--8-8-8-8-8-8--9-9-9-9-11-8\-/

 Gtr. 1
/----------------------------------------------------------------/
/---18~----------------------------------------------------------/
/----------------------------------------------------------------/
/----------------------------------------------------------------/
/----------------------------------------------------------------/
/----------------------------------------------------------------/

 Gtr. 2
/---8b-8p6h8-5h6h8p6-5h6p5---5-----------------------------------/
/--------------------------8---8p6p5-----------------------------/
/----------------------------------------------------------------/
/----------------------------------------------------------------/
/----------------------------------------------------------------/
/----------------------------------------------------------------/

/----------------------------------------------------------------/
/---6p5\4\3----5\-8p5--------------------------------------------/
/-----------5\--------8p7-5\4------------------------------------/
/-----------------------------7\5--------------------------------/
/----------------------------------------------------------------/
/----------------------------------------------------------------/

/----------------------------------------------------------------/
/----------------------------------------------------------------/
/---4h5p4--------------------------------------------------------/
/---------7\3h5p3-2h3h5-3p2--------------------------------------/
/---------------------------5p3\---------------------------------/
/----------------------------------------------------------------/

Gtr. 1 and 3
/-------------------------------------------------------------------/
/-------------------------------------------------------------------/
/-------------------------------------------------------------------/
/---0---------------------6---------------------5-------------------/
/---0--0--0--0--0--0--0---6--6--6--6--6--6--6---5--5--5--5--5--5--5-/
/---0--0--0--0--0--0--0---6--6--6--6--6--6--6---5--5--5--5--5--5--5-/

                                                      [Cont.]
/----------------------------------------------------------------/
/----------------------------------------------------------------/
/----------------------------------------------------------------/
/---8--------3---------------------------------------------------/
/---8--8--8--3--3--3---------------------------------------------/
/---8--8--8--3--3--3---------------------------------------------/

 Gtr. 2
/----------------------X-12h13p12h13p12h13h17p13-12h13p12--------/
/--------------------X-------------------------------------------/
/------------------X---------------------------------------------/
/----------------------------------------------------------------/
/---\2/14\-------X-----------------------------------------------/
/----------0h3p0-X-----------------------------------------------/

/------------12h13-12----------12-13h17-12h13-12-----------------/
/---15\12h13----------15-12-13-------------------15-13p12\10-----/
/----------------------------------------------------------------/
/----------------------------------------------------------------/
/----------------------------------------------------------------/
/----------------------------------------------------------------/

/----------------------------------------------------------------/
/----------------------------------------------------------------/
/---14p12p10\9h10p9---9-12-9-10p9---9-12-14p12p10\9-9------------/
/-------------------9-------------9-------------------9-10-9-----/
/----------------------------------------------------------------/
/----------------------------------------------------------------/

/----------------------------------------------------------------/
/----------------------------------------------------------------/
/----------------------------------------------------------------/
/----------------------------------------------------------------/
/---12p10\8-7-8-10-7---------------------------------------------/
/----------------------------------------------------------------/
End of solo! Congratulations! Give your self a hand!

PRE-CHORUS (After solo)

 Gtr. 1
/----------------------------------------------------------------/
/----------------------------------------------------------------/
/---7-5-7-8--7-5-7-8--7-5-7-8/10--10\5---------------------------/
/---X-X-X-X--X-X-X-X--X-X-X-X--X---X-X---------------------------/
/---5-3-5-6--5-3-5-6--5-3-5-6/-8---8\3---------------------------/
/----------------------------------------------------------------/

 Gtr. 2
/----------------------------------------------------------------/
/----------------------------------------------------------------/
/---10-9-10-12--10-9-10-12--10-9-10-12/14-14\12------------------/
/----X-X--X--X---X-X--X--X---X-X--X--X-----x---------------------/
/----8-7--8-10---8-7--8-10---8-7--8-10/14-14\12------------------/
/----------------------------------------------------------------/

 Gtr. 3 (Extra)
/----------------------------------------------------------------/
/----------------------------------------------------------------/
/----------------------------------------------------------------/
/----------------------------------------------------------------/
/---0-0-0-0-0-0-0-0-6-6-6-6-6-6-6-5-5-5-5-5-5-5-5-/8-8-8\3-3-3-3-/
/---0-0-0-0-0-0-0-0-6-6-6-6-6-6-6-5-5-5-5-5-5-5-5-/8-8-8\3-3-3-3-/

 Gtr. 4 (Extra)
/--------------------------------------------------------------10-10-10-10-/
/--------------------------------------------------10-10-10-10-------------/
/--------------------------7-7-7-7---------7-7-7-7-------------------------/
/------------------7-7-7-7---------7-7-7-7---------------------------------/
/--5-5-5-5-8-8-8-8---------------------------------------------------------/
/--------------------------------------------------------------------------/

 Gtr. 5 (Extra)
/--------------------------10-10-10-10-13-13-13-13---------------/
/--------------10-10-10-10---------------------------------------/
/--10-10-10-10-------------------------------------14-14-14-14---/
/----------------------------------------------------------------/
/----------------------------------------------------------------/
/----------------------------------------------------------------/

                                                  [Gtr. 5 Cont.]
/--------------13-13-13-13-17-17-20------------------------------/
/--15-15-15-15---------------------------------------------------/
/----------------------------------------------------------------/
/----------------------------------------------------------------/
/----------------------------------------------------------------/
/----------------------------------------------------------------/


/This isn't it... i mean, just repeat previous riffs by listening to the song. Comment 
give suggestions if I make a mistake. Rate please./

            
            
Suggest correction
Creating personal tab
Creating personal tab
You can edit any tab online and save it as your Personal.

You can edit, replace or remove any tab part or add personal notes – all changes will be seen only by you.

Personal tabs can be accessed anytime from any device, even offline.
Learn more »
comments
print report bad tab
13 comments total. Showing first comments.
+2 reply
slipknotrox 20 May 12, 2009 11:08 AM

Great tab! stay (sic)

0 reply
rongold360 150 May 12, 2009 02:04 PM

thx man... solo up soon....

+2 reply
thezohan 374 May 13, 2009 12:47 PM

Thank you so ****ing much for the solo

"End of solo! Congradulations! Give your self a hand!"
lol you spelled Congratulations wrong lol thought that was funny. You rock dude!

guest
You may want to rate the tab now too:
select rating
Wanna post a correction for this tab? Suggest correction