Oops, an error
Loading. Please wait.
We have an official Killpop tab made by UG professional guitarists. Check out the tab »
×
54,863 views 162 this week
1 commentread comment
1 2 3 4 5
x 41
add to favorites
×
Save as Personal and add changes to this tab that will be seen only by you. Learn more ›
×
You can save this tab as Personal to edit and correct it or add notes. All changes will be seen only by you. Learn more »
launch autoscroll
font size
0
reset
how to read this tab
guitar tuner
edit
Autoscroll
slow
fast
+/-
esc
set tempo
stop
SLIPKNOT 

KILLPOP

B-F#-B-E-G#-C#


TABBED BY andherembrace





0:36
----0----0----0----0----0----0----0----0----0----0----0----0----0----0----0----0-|
-13---13---13---13---12---12---12---12---13---13---13---13---12---12---12---12---|
---------------------------------------------------------------------------------|
---------------------------------------------------------------------------------|
---------------------------------------------------------------------------------|
---------------------------------------------------------------------------------|

----0---0---0---0---0---0---0---0---0---0---0---0---0---0---0---0---0---|
--7---7---7---7---8---8---8---8---8---7---7---7---7---8---8---8---8-----|
------------------------------------------------------------------------|
------------------------------------------------------------------------|
------------------------------------------------------------------------|
------------------------------------------------------------------------|


----0---0---0---0---0---0---0---0---0---0---0---0---0---0---0---0---0---|
--7---7---7---7---8---8---8---8---8---7---7---7---7---8---8---8---8-----|
------------------------------------------------------------------------|
------------------------------------------------------------------------|
------------------------------------------------------------------------|
------------------------------------------------------------------------|



----0----0----0----0----0----0----0----0----0----0----0----0----0----0----0----0-|
-13---13---13---13---12---12---12---12---13---13---13---13---12---12---12---12---|
---------------------------------------------------------------------------------|
---------------------------------------------------------------------------------|
---------------------------------------------------------------------------------|
---------------------------------------------------------------------------------|

----0---0---0---0---0---0---0---0---0---0---0---0---0---0---0---0---0---|
--7---7---7---7---8---8---8---8---8---7---7---7---7---8---8---8---8-----|
------------------------------------------------------------------------|
------------------------------------------------------------------------|
------------------------------------------------------------------------|
------------------------------------------------------------------------|


----0---0---0---0---0---0---0---0---0---0---0---0---0---0---0---0---0---|
--7---7---7---7---8---8---8---8---8---7---7---7---7---8---8---8---8-----|
------------------------------------------------------------------------|
------------------------------------------------------------------------|
------------------------------------------------------------------------|
------------------------------------------------------------------------|




[1:14]

C#|-------------------------------------------------------------------------|
G#|-------------------------------------------------------------------------|
E |-------------------------------------------------------------------------|
B |-------------------------------------------------------------------------|
F#|-------------------------------------------------------------------------|
B |-0-2~--5-4~--0-2-2-2-2-2-2-2-2-2-2-2-2-2-2-2-0-0-0-0-0-0-0-0-5-4~--0-4~--|
                * * * * * * * * * * * * * * * * * * * * * * * * 

C#|--------------------------------------------------------------|
G#|--------------------------------------------------------------|
E |--------------------------------------------------------------|
B |--------------------------------------------------------------|
F#|--------------------------------------------------------------|
B |-2-2-2-2-2-2-2-2-2-2-2-2-2-2-2-2-0-0-0-0-0-0-0-0-8-7~--0-4~---|
    * * * * * * * * * * * * * * * * * * * * * * * * 


[1:27]

   L
C#|-------------------------------------------------------------|
G#|-------------------------------------------------------------|
E |-------------------------------------------------------------|
B |-------------------------------------------------------------|
F#|-------------------------------------------------------------|
B |2-2-2-2-2-2-2-2-2-2-2-2-2-2-5-5-5-5-4-4-4-4-4-4-4-4-4-4-4-4--|

   R
C#|------------------------------------------------------------|
G#|------------------------------------------------------------|
E |------------------------------------------------------------|
B |------------------------------------------------------------|
F#|------------------------------------------------------------|
B |2-2-2-2-2-2-2-2-2-2-2-2-2-2-5-5-5-5-4-4-4-4-4-4-4-4-4-4-4-4-|

 L
--------------------------------------------------------------------------|
--------------------------------------------------------------------------|
--------------------------------------------------------------------------|
-2-2-2-2-1-1-1-1-1-1-1-1-1-1-1-1-10-10-10-10-9-9-9-9-9-9-9-9-9-9-9-9-9-9--|
--------------------------------------------------------------------------|
--------------------------------------------------------------------------|
 R
C#|------------------------------------------------------------------------|
G#|------------------------------------------------------------------------|
E |------------------------------------------------------------------------|
B |------------------------------------------------------------------------|
F#|-3-3-3-3-2-2-2-2-2-2-2-2-2-2-2-2-3-3-3-3-2-2-2-2-2-2-2-2-2-2-2-2--------|
B |-----------------------------------------------------------------/-\----|

   L
C#|-------------------------------------------------------------|
G#|-------------------------------------------------------------|
E |-------------------------------------------------------------|
B |-------------------------------------------------------------|
F#|----------------------------5-5-5-5-7-7-4-4-4-4-4-4-4-4-4-4--|
B |2-2-2-2-2-2-2-2-2-2-2-2-2-2----------------------------------|

   R
C#|-------------------------------------------------------------|
G#|-------------------------------------------------------------|
E |-------------------------------------------------------------|
B |-------------------------------------------------------------|
F#|-------------------------------------------------------------|
B |2-2-2-2-2-2-2-2-2-2-2-2-2-2-5-5-5-5-7-7-4-4-4-4-4-4-4-4-4-4--|

   L
--------------------------------------------------------------------------|
--------------------------------------------------------------------------|
--------------------------------------------------------------------------|
-2-2-2-2-1-1-1-1-1-1-1-1-1-1-1-1-10-10-10-10-9-9-9-9-9-9-9-9-9-9-9-9-9-9--|
--------------------------------------------------------------------------|
--------------------------------------------------------------------------|

   R
C#|-------------------------------------------------------------------------|
G#|-------------------------------------------------------------------------|
E |-------------------------------------------------------_-----------------|
B |------------------------------------------------------/ \----------------|
F#|-3-3-3-3-2-2-2-2-2-2-2-2-2-2-2-2-3-3-3-3-2-2-2-2-2-2-2-3-2-0-2-0---------|
B |-----------------------------------------------------------------5-4-5---|



----0----0----0----0----0----0----0----0----0----0----0----0----0----0----0----0-|
-13---13---13---13---12---12---12---12---13---13---13---13---12---12---12---12---|
---------------------------------------------------------------------------------|
---------------------------------------------------------------------------------|
---------------------------------------------------------------------------------|
---------------------------------------------------------------------------------|

----0---0---0---0---0---0---0---0---0---0---0---0---0---0---0---0---0---|
--7---7---7---7---8---8---8---8---8---7---7---7---7---8---8---8---8-----|
------------------------------------------------------------------------|
------------------------------------------------------------------------|
------------------------------------------------------------------------|
------------------------------------------------------------------------|


----0---0---0---0---0---0---0---0---0---0---0---0---0---0---0---0---0---|
--7---7---7---7---8---8---8---8---8---7---7---7---7---8---8---8---8-----|
------------------------------------------------------------------------|
------------------------------------------------------------------------|
------------------------------------------------------------------------|
------------------------------------------------------------------------|


[2:28]

C#|-------------------------------------------------------------------------|
G#|-------------------------------------------------------------------------|
E |-------------------------------------------------------------------------|
B |-------------------------------------------------------------------------|
F#|-------------------------------------------------------------------------|
B |-8-7~--0-4~--2-2-2-2-2-2-2-2-2-2-2-2-2-2-2-2-0-0-0-0-0-0-0-0-5-4~--0-4~--|
             * * * * * * * * * * * * * * * * * * * * * * * * 

C#|--------------------------------------------------------------|
G#|--------------------------------------------------------------|
E |--------------------------------------------------------------|
B |--------------------------------------------------------------|
F#|--------------------------------------------------------------|
B |-2-2-2-2-2-2-2-2-2-2-2-2-2-2-2-2-0-0-0-0-0-0-0-0-8-7~--0-4~---|

   L
C#|-------------------------------------------------------------|
G#|-------------------------------------------------------------|
E |-------------------------------------------------------------|
B |-------------------------------------------------------------|
F#|-------------------------------------------------------------|
B |2-2-2-2-2-2-2-2-2-2-2-2-2-2-5-5-5-5-4-4-4-4-4-4-4-4-4-4-4-4--|

   R
C#|------------------------------------------------------------|
G#|------------------------------------------------------------|
E |------------------------------------------------------------|
B |------------------------------------------------------------|
F#|------------------------------------------------------------|
B |2-2-2-2-2-2-2-2-2-2-2-2-2-2-5-5-5-5-4-4-4-4-4-4-4-4-4-4-4-4-|

   L
--------------------------------------------------------------------------|
--------------------------------------------------------------------------|
--------------------------------------------------------------------------|
-2-2-2-2-1-1-1-1-1-1-1-1-1-1-1-1-10-10-10-10-9-9-9-9-9-9-9-9-9-9-9-9-9-9--|
--------------------------------------------------------------------------|
--------------------------------------------------------------------------|
   R
C#|------------------------------------------------------------------------|
G#|------------------------------------------------------------------------|
E |------------------------------------------------------------------------|
B |------------------------------------------------------------------------|
F#|-3-3-3-3-2-2-2-2-2-2-2-2-2-2-2-2-3-3-3-3-2-2-2-2-2-2-2-2-2-2-2-2--------|
B |-----------------------------------------------------------------/-\----|

   L
C#|-------------------------------------------------------------|
G#|-------------------------------------------------------------|
E |-------------------------------------------------------------|
B |-------------------------------------------------------------|
F#|----------------------------5-5-5-5-7-7-4-4-4-4-4-4-4-4-4-4--|
B |2-2-2-2-2-2-2-2-2-2-2-2-2-2----------------------------------|

   
 R
C#|-------------------------------------------------------------|
G#|-------------------------------------------------------------|
E |-------------------------------------------------------------|
B |-------------------------------------------------------------|
F#|-------------------------------------------------------------|
B |2-2-2-2-2-2-2-2-2-2-2-2-2-2-5-5-5-5-7-7-4-4-4-4-4-4-4-4-4-4--|

B |----------------------------------------------------------|
G#|----------------------------------------------------------|
E |----------------------------------------------------------|
B |-2-2-2-2-1-1-1-1-1-1-1-1-1-1-1-1-10-10-10-10-9-9-9-9-9-9--|
F#|----------------------------------------------------------|
B |----------------------------------------------------------|

   R
C#|-----------------------------------------------------|
G#|-----------------------------------------------------|
E |-----------------------------------------------------|
B |-----------------------------------------------------|
F#|-3-3-3-3-2-2-2-2-2-2-2-2-2-2-2-2-3-3-3-3-2-2-2-2-2-2-|
B |-----------------------------------------------------|

   L
C#|---------------------------------------------------------------------------------|
G#|---------------------------------------------------------------------------------|
E |--^----^----^----^----^----^----^----^----^----^----^----^----^----^----^----^---|
B |-9-10-9-10-9-10-9-10-9-10-9-10-9-10-9-10-9-10-9-10-9-10-9-10-9-10-9-10-9-10-9-10-|
F#|---------------------------------------------------------------------------------|
B |---------------------------------------------------------------------------------|

   R
C#|-----------------------------------------------------------------|
G#|-----------------------------------------------------------------|
E |-----------------------------------------------------------------|
B |--^---^---^---^---^---^---^---^---^---^---^---^---^---^---^---^--|
F#|-2-3-2-3-2-3-2-3-2-3-2-3-2-3-2-3-2-3-2-3-2-3-2-3-2-3-2-3-2-3-2-3-|
B |-----------------------------------------------------------------|


[3:08]
[SOLO]

      ///    ///    ///    ///    ///   ///                     
C#|-/-15-----14--/--17-----15--/--19-----15------------------|
G#|--------------------------------------------17~~-\--------|
E |----------------------------------------------------------|
B |----------------------------------------------------------|
F#|----------------------------------------------------------|
B |----------------------------------------------------------|

   RYTYHM THRU SOLO PLAYED TWICE
C#|------------------------------------------------------------------|
G#|------------------------------------------------------------------|
E |------------------------------------------------------------------|
B |-----------------4-5-----------------------------4-5--------------|
F#|-2-0-2-4-5-4-2-4-2/3-2-4-5-4-2-4-2-0-2-4-5-4-2-4-2/3-2-4-5-4-2-4--|
B |-2-0-2-4-5-4-2-4-----2-4-5-4-2-4-2-0-2-4-5-4-2-4-----2-4-5-4-2-4--|
          ___________
         /           \     ___________
C#|----14-15-17-15-14\12--/           \------__-------_____--------------------------------------|
G#|-/-------------------12-13-15-13-12\11---/  \-----/     \----_______________------_____-------|
E |---------------------------------------11-12-14-14-12-11\9--/               \----/     \------|
B |-----------------------------------------------------------9-10-12-10-9-10-9\7-10-9-7-9-7-----|
F#|-----------------------------------------------------------------------------------------10-7-|
B |----------------------------------------------------------------------------------------------|
        __           __________________________
C#|----/  \---------/                          \------__---------|
G#|--12-13-12-----12/13-17-15-13-15-13\12-13-12-10---/  \--------|
E |------------------------------------------------11-12-11-9----|
B |-/------------------------------------------------------------|
F#|--------------------------------------------------------------|
B |--------------------------------------------------------------|

                                )()(
C#|---------------------------12------|
G#|-12----10--------------------------|
E |----9-----9--12----11--------------|
B |----------------9------9-----------|
F#|-----------------------------------|
B |-----------------------------------|

C#|------------------------------------------------------------------|
G#|------------------------------------------------------------------|
E |------------------------------------------------------------------|
B |-----------------4-5-----------------------------4-5--------------|
F#|-2-0-2-4-5-4-2-4-2/3-2-4-5-4-2-4-2-0-2-4-5-4-2-4-2/3-2-4-5-4-2-4--|
B |-2-0-2-4-5-4-2-4-----2-4-5-4-2-4-2-0-2-4-5-4-2-4-----2-4-5-4-2-4--|

C#|------------------------------------------------------------------|
G#|------------------------------------------------------------------|
E |------------------------------------------------------------------|
B |-----------------4-5-----------------------------4-5--------------|
F#|-2-0-2-4-5-4-2-4-2/3-2-4-5-4-2-4-2-0-2-4-5-4-2-4-2/3-2-4-5-4-2-4--|
B |-2-0-2-4-5-4-2-4-----2-4-5-4-2-4-2-0-2-4-5-4-2-4-----2-4-5-4-2-4--|

C#|------------------------------------------------------------------|
G#|------------------------------------------------------------------|
E |------------------------------------------------------------------|
B |-----------------4-5-----------------------------4-5--------------|
F#|-2-0-2-4-5-4-2-4-2/3-2-4-5-4-2-4-2-0-2-4-5-4-2-4-2/3-2-4-5-4-2-4--|
B |-2-0-2-4-5-4-2-4-----2-4-5-4-2-4-2-0-2-4-5-4-2-4-----2-4-5-4-2-4--|

C#|--------------------------------------------------|
G#|--------------------------------------------------|
E |--------------------------------------------------|
B |-----------------4-5------------------------------|
F#|-2-0-2-4-5-4-2-4-2/3-2-4-5-4-2-4-2-0-2-4-5-4-2-4--|
B |-2-0-2-4-5-4-2-4-----2-4-5-4-2-4-2-0-2-4-5-4-2-4--|
                                  * * * * * * * *



************************************

| /  Slide up
| \  Slide down
| ~  Vibrato
| *  Palm mute

************************************

            
            
Suggest correction
Creating personal tab
Creating personal tab
You can edit any tab online and save it as your Personal.

You can edit, replace or remove any tab part or add personal notes – all changes will be seen only by you.

Personal tabs can be accessed anytime from any device, even offline.
Learn more »
comments
print report bad tab
1 comment total.
0 reply
dagrthan 10 Aug 02, 2017 11:10 AM

guitar 1's part of the intro is tabbed completely wrong, jim root did a tutorial so just look that up for the proper way to play it

guest
You may want to rate the tab now too:
select rating
Wanna post a correction for this tab? Suggest correction