Oops, an error
Loading. Please wait.

Only One tab

version 4
version 4

Whole song

Interactive

364 views 1 this week
9 commentsread comments
1 2 3 4 5
1 last vote to show rating
add to favorites
×
Save as Personal and add changes to this tab that will be seen only by you. Learn more ›
×
You can save this tab as Personal to edit and correct it or add notes. All changes will be seen only by you. Learn more »
launch autoscroll
font size
0
reset
how to read this tab
guitar tuner
edit
Autoscroll
slow
fast
+/-
esc
set tempo
stop
Author
-------------------------------------------------------------------------------
                             Only One - Slipknot
-------------------------------------------------------------------------------
Tabbed by:thezohan
Email:

Tuning:Drop B (B, F#, B, E, G#, C#)

Awesome song! 
I will explain if there is weird 
timing and stuff. 
 
Intro(Lead Guitar)
C#|---17--17--17--17---------------------------------------------------------|
G#|-17--17--17--17-----------------------------------------------------------|
E |--------------------------------------------------------------------------|
B |--------------------------------------------------------------------------|
F#|--------------------------------------------------------------------------|
B |--------------------------------------------------------------------------|
 Intro (Rhythm Guitar)
C#|--------------------------------------------------------------------------|
G#|--------------------------------------------------------------------------|
E |--------------------------------------------------------------------------|
B |--------------------------------------------------------------------------|
F#|--1-1-1-1-----------------------------------------------------------------|
B |-3-3-3-3------------------------------------------------------------------|

Riff 1 Note: Each note is held for a weird amout of time.
Listen to song. ...Pain! Made to order!...
C#|--------------------------------------------------------------------------|
G#|--------------------------------------------------------------------------|
E |--------------------------------------------------------------------------|
B |---3-2-----3-----2--------------------------------------------------------|
F#|-0-1-0-3-2-1-2-1-0-1------------------------------------------------------|
B |-0-----3-2---2-1---1------------------------------------------------------|
During the rapping part at some point, do this
(right before ...I can't stand it, Planned it,...
         1st time                             2nd time
C#|-----------------------------|---------------------------------------------|
G#|-----------------------------|---------------------------------------------|
E |-----------------------------|---------------------------------------------|
B |------3----------------------|-------2-------------------------------------|
F#|-3-2--1--2-1-----------------|--2-1--0—-1~---------------------------------|
B |-3-2-----2-1-----------------|--2-1-----1~---------------------------------|
  
During Verse, DJ does this thing 
C#|-/21\-----------/21\---------/21\-------------/21\------------------------|
G#|--------------------------------------------------------------------------|
E |--------------------------------------------------------------------------|
B |--------------------------------------------------------------------------|
F#|--------------------------------------------------------------------------|
B |--------------------------------------------------------------------------|



 Repeat Riff 1

 Riff 2    x8
C#|------------------------------------------------------|
G#|------------------------------------------------------|
E |------------------------------------------------------|
B |------------------------------------------------------|
F#|-3-0-0-5-6----3-0-0-5-6----3-0-0-5-6----3-0-0-5-6-----|
B |-3-0-0-5-6----3-0-0-5-6----3-0-0-5-6----3-0-0-5-6-----|
    x x x        X X X        X X X        X X X

 Weird timing riff. I think 6/8 or something.
C#|-------------------------------------------------|
G#|-------------------------------------------------|
E |-------------------------------------------------|
B |-------------------------------------------------|
F#|-----5-3--------5-3--------5-3--1-2-1-2-3-2-1----|
B |-0-3-----3--0-3-----3--0-3------1-2-1-2-3-2-1----|
      X     X    X     X    X      X X X X X X X                    

  Chorus (Only one of us walks away)
C#|------------------------------------|
G#|------------------------------------|
E |------------------------------------|
B |------------------------------------|
F#|-1-0-1-3-4-3-1-3--1-0-1-3-4-3-1-3---|
B |-1-0-1-3-4-3-1-3--1-0-1-3-4-3-1-3---|
      X X X   X X X    X X X   X X X

 Repeat weird timing riff

 Repeat Chorus

Enjoy! Please Comment/Rate

| /  slide up
| \  slide down
| h  hammer-on
| p  pull-off
| ~  vibrato
| +  harmonic
| x  Mute note
===============================================================================

            
            
Suggest correction
Creating personal tab
Creating personal tab
You can edit any tab online and save it as your Personal.

You can edit, replace or remove any tab part or add personal notes – all changes will be seen only by you.

Personal tabs can be accessed anytime from any device, even offline.
Learn more »
Give kudos to tab author, rate the tab!
1 2 3 4 5
comments
print report bad tab
9 comments total. Showing first comments.
-2 reply
$lipKnoT 61 Mar 20, 2009 12:05 PM

just... awful

0 reply
thezohan 374 Apr 07, 2009 11:40 AM

what's awful I can fix it.

0 reply
thezohan 374 Apr 18, 2009 03:36 AM

THIS IS THE SELF-TITLE VERSION NOT MATE.FEED.KILL.REPEAT VERSION.

guest
You may want to rate the tab now too:
select rating
Wanna post a correction for this tab? Suggest correction