Oops, an error
Loading. Please wait.

People S tab

237 views 1 this week
1 commentread comment
1 2 3 4 5
3 more votes to show rating
add to favorites
×
Save as Personal and add changes to this tab that will be seen only by you. Learn more ›
×
You can save this tab as Personal to edit and correct it or add notes. All changes will be seen only by you. Learn more »
launch autoscroll
font size
0
reset
how to read this tab
guitar tuner
edit
Autoscroll
slow
fast
+/-
esc
set tempo
stop
SONG: PEOPLE = SHIT
BAND: SLIPKNOT
ALBUM: IOWA
YEAR: 2000
GENRE: DEATH METAL
TUNNING: DROP B (B F# B E G# C#)

LEGEND OF SIMBOLS:
/ SLIDE UP
\ SLIDE DOWN
~ VIBRATO
__ LET RING
h  HAMMER ON
.  STACCATO
X  DEATH NOTE
b  BEND
!  HOLD BEND
gb GRADUAL BEND
r  RELEASE (IF IT HASN´T NUMBER AFTER r, RELEASE INMEDIATELY)
*  PINCH HARMONIC

||o-- REPEAT START
--o|| REPEAT ENDING
PM-|  PALM MUTE
TP-|  TREMOLO PICK

*****************************************
* LISTEN CAREFULLY ANY PART OF THE SONG *
*****************************************

INTRO 1:
+NOTE: IF YOU CAN´T DO THE "PULL OF", YOU CAN USE THE SLIDE"
      PM|     PM|     PM|     PM|
|-----------------------------------------------|
|-----------------------------------------------|
|-----------------------------------------------|
|-----------------------------------------------|
|-6p5-----3p2-----6p5-----3p2-----0.-0.-0.-0.-X-|
|-6p5-0-0-3p2-0-0-6p5-0-0-3p2-0-0-0.-0.-0.-0.-X-|+

Part 2: Faster part 
||-----------------------------------------------------------||
||o---------------------------------------------------------o||
||-----------------------------------------------------------||
||-----------------------------------------------------------||
||o-5-5-5-5-----------------2-2-2-2-3-3-3-3---------2-2-2-2-o||
||----------1-1-1-1-0-0-0-0-----------------3-3-3-3----------||

GUITAR 1
|--------|---------|--------|--------|
|--------|---------|--------|--------|
|--------|---------|--------|--------|
|--------|---------|--------|--------|
|--------|-3*b5r---|--------|-4*b5r--|
|-1__----|---------|-1__----|--------|

GUITAR 2: 
TP---------------------------------|
|----------------|-------------------|
|-11--11--11--11-|-14---14---14---14-|
|-X---X---X---X--|-X----X----X----X--|
|-8---8---8---8--|-11---11---11---11-|
|----------------|-------------------|
|----------------|-------------------|

INTRO 2: FASTER PART BOTH GUITARS                            X4
||-----------------------------------------------------------||
||o---------------------------------------------------------o||
||-----------------------------------------------------------||
||-----------------------------------------------------------||
||o-5-5-5-5-----------------2-2-2-2-3-3-3-3---------2-2-2-2-o||
||----------1-1-1-1-0-0-0-0-----------------3-3-3-3----------||

ENDING OF INTRO 2
GUITAR 2 STARTS:  |
|-----------|-----|---------------------------|---------------------------|
|-----------|-----|---------------------------|---------------------------|
|-----------|-----|---------------------------|---------------------------|
|-----------|-----|---------------------------|---------------------------|
|-1~__------|-----|---------------------------|---------------------------|
|-1~__------|-17\-|-0-2-1p0-0h1~-0-2-1p0-0h5~-|-0-2-1p0-0h1~-0-2-1p0-0h5~-|


GUITAR 1: 
|-----------|-----|---------------------------|---------------------|-----|
|-----------|-----|---------------------------|---------------------|-----|
|-----------|-----|---------------------------|---------------------|-----|
|-----------|-----|---------------------------|---------------------|-----|
|-----------|-----|---------------------------|---------------------|-----|
|-5gb8!__---|-17\-|---------------------------|---------------------|-12\-|

BOTH GUITARS:                                              x3
||----------------------------|----------------------------||
||o---------------------------|---------------------------o||
||----------------------------|----------------------------||
||----------------------------|----------------------------||
||o---------------------------|---------------------------o||
||--0-2-1p0-0h1~-0-2-1p0-0h5~-|-0-2-1p0-0h1~-0-2-1p0-0h5~--||

"AFTER":
|-----------------------------|-----------------------------|
|-----------------------------|-----------------------------|
|-----------------------------|-----------------------------|
|-----------------------------|-----------------------------|
|-0-2-1p0-0h1__-0-2-1p0-0h5__-|-0-2-1p0-0h1__-0-2-1p0-0h5__-|
|-0-2-1p0-0h1__-0-2-1p0-0h5__-|-0-2-1p0-0h1__-0-2-1p0-0h5__-|

IN VERSE 1:                                            x4
||-----------------------------------------------------||
||o---------------------------------------------------o||
||-----------------------------------------------------||
||-----------------------------------------------------||
||o---------------------------------------------------o||
||--0-2-1p0-0h1~--3h4p3~--0-0-1~--3h4p3~--0-0-6-6-5-5--||

LITTLE SOLO:
GUITAR 1
TP-----------------------------------------|
|---------------|---------|---------------------|
|---------------|---------|---------------------|+
|-/19------20---|---------|-19--------20gb23r---|
|---------------|-21--20--|---------------------|
|---------------|---------|---------------------|
|---------------|---------|---------------------|

GUITAR 2: BIT IN SOLO              X2
||----------------|----------------||
||o---------------|---------------o||
||----------------|----------------||
||----------------|----------------||
||o---------------|---------------o||
||-7p0-8\-1/4-4-7-|-7p0-8\-1/4-4-7-||

PLAY AGAIN "AFTER"

IN THE NEXT VERSE PLAY THIS
PM--------------------------------------------------------------------|
|---------------------------------------------|---------------------------|------|
|---------------------------------------------|---------------------------|------|
|---------------------------------------------|---------------------------|------|
|---------------------------------------------|---------------------------|------|
|-0-2-1-0-1--3-4-3--0-0-1--3-4-3--0-0-6-6-5-5-|-0-2-1-0-1--3-4-3--0-0-1__-|------|
|-0-2-1-0-1--3-4-3--0-0-1--3-4-3--0-0-6-6-5-5-|-0-2-1-0-1--3-4-3--0-0-1__-|-/14\-|

NOTE: AFTER THE SLIDES, PLAY "AFTER" RIFF

CHORUS
GUITAR 2:                           X4
||-----------------|-----------------||
||o----------------|----------------o||
||-----------------|-----------------||
||-----------------|-----------------||
||o-7p0-8\-1/4-4-7-|-7p0-8\-1/4-4-7-o||
||--7p0-8\-1/4-4-7-|-7p0-8\-1/4-4-7--||

GUITAR 1:                                     x4
||----------------------|----------------------||
||o---------------------|---------------------o||
||--14-14-X-15----------|-14-14-X-15-----------||
||--X--X--X-X-----------|-X--X--X-X------------||
||o-12-12-X-13--1/4-4-7-|-12-12-X-13--1/4-4-7-o||+
||--------X-----1/4-4-7-|-------X-----1/4-4-7--||

NO GUITARS IN DRUM´S SOLO....

BREAK PART 1:
GUITAR 2:                             x4
|-----||---------------------------||
|-----||o-------------------------o||
|-----||---------------------------||
|-----||---------------------------||
|-----||o---------------------0h1-o||
|-19\-||---0.---0.---0.---0.--0h1--||
             
GUITAR 1: ENTER AT 2ND TIME        x2
|-----||---------------------------||
|-----||o-------------------------o||
|-----||---------------------------||
|-----||---------------------------||
|-----||o---------------------0h1-o||
|-19\-||---0.---0.---0.---0.--0h1--||

BREAK PART 2:                          x5
||------------------|------------------||
||o-----------------|-----------------o||
||------------------|------------------||
||------------------|------------------||
||o-0h1-0h1-0h1-0h2-|-0h1-0h1-0h2-0h4-o||
||--0h1-0h1-0h1-0h2-|-0h1-0h1-0h2-0h4--||

ENDING: 
PM----------------------------------|  x2
||------------------|------------------||
||o-----------------|-----------------o||
||------------------|------------------||
||------------------|------------------||
||o-0h1-0h1-0h1-0h2-|-0h1-0h1-0h2-0h4-o||
||--0h1-0h1-0h1-0h2-|-0h1-0h1-0h2-0h4--||

GUITAR 1:   GUITAR 2:                           x2
|-----x2|   ||----------------|-----------------||
|-------|   ||o---------------|----------------o||
|-------|   ||----------------|-----------------||
|-------|   ||----------------|-----------------||
|-0__---|   ||o---------------|----------------o||
|-0__---|   ||-7p0-8\-1/4-4-7-|-7p0-8\-1/4-4-7--||

BOTH GUITARS:
PM--------------------------------|  x2
||-----------------|-----------------||
||o----------------|----------------o||
||-----------------|-----------------||
||-----------------|-----------------||
||o-7-0-8\-1-4-4-7-|-7-0-8\-1-4-4-7-o||
||--7-0-8\-1-4-4-7-|-7-0-8\-1-4-4-7--||

BEFORE NEXT CHORUS, PLAY THIS SLIDE:
(6TH STRING)
6|-/19\-|

OUTRO:
+NOTE: IF YOU CAN´T DO THE "PULL OF", YOU CAN USE THE SLIDE"
      PM|     PM|     PM|     PM|
|---------------------------------------|----|
|---------------------------------------|----|
|---------------------------------------|----|
|---------------------------------------|----|
|-6p5-----3p2-----6p5-----3p2-----0.-0.-|-0.-|
|-6p5-0-0-3p2-0-0-6p5-0-0-3p2-0-0-0.-0.-|-0.-|+

~~~~~~~~~~~~~~~~~~~~~~~~~~~~~~~~~~~~~~~~~~~~~~~~~~~~~~~~~~~~~~~~~~~~~~~~~~~~~~~~~~~

(+) ADDITIONAL NOTES (VARIATIONS)
IN LIVE EDITION (DISASTERPIECES DVD) JAMES PLAY THE SOLO IN THIS WAY
MAYBE ARE MORE HITS IN THE NOTES, 
"THIS SOUNDS COOL IF YOU PLAY IT WHIT TREMOLO PICK"
|-------------------|-------------------|-----------
|-------------------|-------------------|-----------
|-14-14-14-14-14-14-|-15-15-15-15-15-15-|-10-10-9-9-
|-X--X--X--X--X--X--|-X--X--X--X--X--X--|-X--X--X-X-
|-12-12-12-12-12-12-|-13-13-13-13-13-13-|-8--8--7-7-
|-------------------|-------------------|-----------

-------------------|-------------------------------------|
-------------------|-------------------------------------|
-14-14-14-14-14-14-|-15-15-15-15-15-15-15-15-15-15-15-15-|
-X--X--X--X--X--X--|-X--X--X--X--X--X--X--X--X--X--X--X--|
-12-12-12-12-12-12-|-13-13-13-13-13-13-13-13-13-13-13-13-|
-------------------|-------------------------------------|+

IN THE CHORUS PART, THE BOTH GUITARS PLAY THIS:
(ONLY IN LIVE EDITION [DISASTERPIECES DVD)]
                                     X4
||-----------------|-----------------||
||o----------------|----------------o||
||-----------------|-----------------||
||-----------------|-----------------||
||o-7p0-8\-1/4-4-7-|-7p0-8\-1/4-4-7-o||
||--7p0-8\-1/4-4-7-|-7p0-8\-1/4-4-7--||+


            
            
Suggest correction
Creating personal tab
Creating personal tab
You can edit any tab online and save it as your Personal.

You can edit, replace or remove any tab part or add personal notes – all changes will be seen only by you.

Personal tabs can be accessed anytime from any device, even offline.
Learn more »
Give kudos to tab author, rate the tab!
1 2 3 4 5
comments
print report bad tab
1 comment total.
0 reply
SEHNSUCHT9000 77 Nov 18, 2015 05:11 PM

someone can rate my tab??
don´t worry if you put 3 stars

guest
You may want to rate the tab now too:
select rating
Wanna post a correction for this tab? Suggest correction