Oops, an error
Loading. Please wait.
We have an official Psychosocial tab made by UG professional guitarists. Check out the tab »
×

Psychosocial tab

22,431 views 54 this week
no commentswrite comment
1 2 3 4 5
x 8
add to favorites
×
Save as Personal and add changes to this tab that will be seen only by you. Learn more ›
×
You can save this tab as Personal to edit and correct it or add notes. All changes will be seen only by you. Learn more »
launch autoscroll
font size
0
reset
how to read this tab
guitar tuner
backing track
0:00
0:00
edit
Autoscroll
slow
fast
+/-
esc
set tempo
stop
Psychosocial tab by Slipknot

Tabbed by thiscomposer
(Mail me at thiscomposer@mail.ru)

Tuning : BF#BEG#C#

 [Intro] X2
C#|------------------------------------------------------------------------|
G#|------------------------------------------------------------------------|
E |------------------------------------------------------------------------|
B |------------------------------------------------------------------------|
F#|-----------<7>^--3h5-------------------<7>^--3h5------------<7>^--3h5---|
B |-0-0-3-0-0-----0-3h5-0-0-0-0-0-0-0-0-0-----0-3h5--0-0-3-0-0-----0-3h5-0-|
    * * * * *     *     * * * * * * * * *     *      * * * * *     *     *

C#|---------------------------------|
G#|---------------------------------|
E |---------------------------------|
B |---------------------------------|
F#|---------------------------------|
B |-5-5-5-5-6-6-6-6-8-8-8-8-7-7-7-7-|
    * * * * * * * * * * * * * * * *

 [Break 1] X4(last time - slowly release palm mute)
C#|---------------------------------|
G#|---------------------------------|
E |---------------------------------|
B |---------------------------------|
F#|---------------------------------|
B |-5-5-5-5-6-6-6-6-8-8-8-8-7-7-7-7-|
    * * * * * * * * * * * * * * * *

 [Verse] X2
          X3         /            X1
C#|-----------------|-----------------|
G#|-----------------|-----------------|
E |-----------------|-----------------|
B |-----------------|-----------------|
F#|-6-----5-----5/6-|-6-5-3-1-3-5-3-2-|
B |-6-0-0-5-0-0-5/6-|-6-5-3-1-3-5-3-2-|
      * *   * *       * * * * * * * *

 [Verse beginning part] X1
          X1     /              X2 /          X1
C#|--------------|-----------------|-----------------|
G#|--------------|-----------------|-----------------|
E |--------------|-----------------|-----------------|
B |--------------|-----------------|-----------------|
F#|--6h5-----5/6-|-6-----5-----5/6-|-6-5-3-0-3-5-3-2-|
B |--6h5-0-0-5/6-|-6-0-0-5-0-0-5/6-|-6-5-3-0-3-5-3-2-|
         * *         * *   * *       * * * * * * * *

 [Verse] X3
          X3        /       X1
C#|-----------------|-----------------|
G#|-----------------|-----------------|
E |-----------------|-----------------|
B |-----------------|-----------------|
F#|-6-----5-----5/6-|-6-5-3-1-3-5-3-2-|
B |-6-0-0-5-0-0-5/6-|-6-5-3-1-3-5-3-2-|
      * *   * *       * * * * * * * *

  [Chorus] X1
C#|--------------------------------------------------------------|
G#|--------------------------------------------------------------|
E |--------------------------------------------------------------|
B |-------------------------3-3-3--------------------5-5-5--8-8-8|
F#|-6-6-6-6-6-6-6---1-1-1---1-1-1---5--5-5-5-5-5-5-5-3-3-3--6-6-6|
B |-6-6-6-6-6-6-6-0-1-1-1-0-------0-5--5-5-5-5-5-5-5-------------|
                                       * * * * * * *

C#|----------------------------------------------------]-------|
G#|----------------------------------------------------]-------|
E |----------------------------------------------------]-------|
B |-------------------------3-3-3----------------------]-------|
F#|-6-6-6-6-6-6-6---1-1-1---1-1-1---5--5-5-5-5-5-5-5-0-]-0-----|
B |-6-6-6-6-6-6-6-0-1-1-1-0-------0-5--5-5-5-5-5-5-5-0-]-0-13\-|
                                       * * * * * * *     *

 [Verse] X2
          X3        /     X1
C#|-----------------|-----------------|
G#|-----------------|-----------------|
E |-----------------|-----------------|
B |-----------------|-----------------|
F#|-6-----5-----5/6-|-6-5-3-1-3-5-3-2-|
B |-6-0-0-5-0-0-5/6-|-6-5-3-1-3-5-3-2-|
      * *   * *       * * * * * * * *

 [Verse] beginning part X1
          X1     /              X2 /         X1
C#|--------------|-----------------|-----------------|
G#|--------------|-----------------|-----------------|
E |--------------|-----------------|-----------------|
B |--------------|-----------------|-----------------|
F#|--6h5-----5/6-|-6-----5-----5/6-|-6-5-3-0-3-5-3-2-|
B |--6h5-0-0-5/6-|-6-0-0-5-0-0-5/6-|-6-5-3-0-3-5-3-2-|
         * *         * *   * *       * * * * * * * *

 [Verse] X3
          X3        /      X1
C#|-----------------|-----------------|
G#|-----------------|-----------------|
E |-----------------|-----------------|
B |-----------------|-----------------|
F#|-6-----5-----5/6-|-6-5-3-1-3-5-3-2-|
B |-6-0-0-5-0-0-5/6-|-6-5-3-1-3-5-3-2-|
      * *   * *       * * * * * * * *

 [Chorus] X1
C#|--------------------------------------------------------------|
G#|--------------------------------------------------------------|
E |--------------------------------------------------------------|
B |-------------------------3-3-3--------------------5-5-5--8-8-8|
F#|-6-6-6-6-6-6-6---1-1-1---1-1-1---5--5-5-5-5-5-5-5-3-3-3--6-6-6|
B |-6-6-6-6-6-6-6-0-1-1-1-0-------0-5--5-5-5-5-5-5-5-------------|
                                       * * * * * * *
 
C#|----------------------------------------------------]-------|
G#|----------------------------------------------------]-------|
E |----------------------------------------------------]-------|
B |-------------------------3-3-3----------------------]-------|
F#|-6-6-6-6-6-6-6---1-1-1---1-1-1---5--5-5-5-5-5-5-5-0-]-0-----|
B |-6-6-6-6-6-6-6-0-1-1-1-0-------0-5--5-5-5-5-5-5-5-0-]-0-13\-|
                                       * * * * * * *     *

Sorry , I cannot work out the solo , here is undersolo part :

 [1st part] X2
          X3        /     X1
C#|-----------------|-----------------|
G#|-----------------|-----------------|
E |-----------------|-----------------|
B |-----------------|-----------------|
F#|-6-----5-----5/6-|-6-5-3-1-3-5-3-2-|
B |-6-0-0-5-0-0-5/6-|-6-5-3-1-3-5-3-2-|
     * *   * *       * * * * * * * *

 [2nd part]
C#|--------------------------------------------------------------|
G#|--------------------------------------------------------------|
E |--------------------------------------------------------------|
B |-------------------------3-3-3--------------------5-5-5--8-8-8|
F#|-6-6-6-6-6-6-6---1-1-1---1-1-1---5--5-5-5-5-5-5-5-3-3-3--6-6-6|
B |-6-6-6-6-6-6-6-0-1-1-1-0-------0-5--5-5-5-5-5-5-5-------------|
    * * * * * * * *       *       *    * * * * * * *

C#|----------------------------------------------------------|
G#|----------------------------------------------------------|
E |----------------------------------------------------------|
B |-------------------------3-3-3----------------------------|
F#|-6-6-6-6-6-6-6---1-1-1---1-1-1---5--5-5-5-5-5-5-5-5-5-5-5-|
B |-6-6-6-6-6-6-6-0-1-1-1-0-------0-5--5-5-5-5-5-5-5-5-5-5-5-|
    * * * * * * *                      * * * * * * * * * * *

 [Interlude] X3(palm muted)
C#|------------------------------------|
G#|------------------------------------|
E |------------------------------------|
B |------------------------------------|
F#|------------------------------------|
B |-0-0---0-0--0-0--0-0-0-0--0-0-0-0-0-|

 [Interlude riff 1]
C#|------------------------------------|
G#|------------------------------------|
E |------------------------------------|
B |------------------------------------|
F#|------------------------------------|
B |-0-0---0-0--0-0--0-0-0-0--0-0-/15\\-|
    * *   * *  * *  * * * *  * *

 [Interlude] X4(palm muted)
C#|------------------------------------|
G#|------------------------------------|
E |------------------------------------|
B |------------------------------------|
F#|------------------------------------|
B |-0-0---0-0--0-0--0-0-0-0--0-0-0-0-0-|

 [Post-interlude] X1
                  X3                     /                X1
C#|--------------------------------------|---------------------------]-------|
G#|--------------------------------------|---------------------------]-------|
E |--------------------------------------|---------------------------]-------|
B |--------------------------------------|---------------------------]-------|
F#|--------------------------------------|---------------------------]---5---|
B |-0-0-6-\-0-0--0-0--0-0-0-0--0-0-0-3/5-|-0-0-6-\-0-0--0-0--0-0-0-0-]-0-5-0-|
    * *     * *  * *  * * * *  * * *       * *     * *  * *  * * * *   *   *

 [Verse] X3
          X3         /            X1
C#|-----------------|-----------------|
G#|-----------------|-----------------|
E |-----------------|-----------------|
B |-----------------|-----------------|
F#|-6-----5-----5/6-|-6-5-3-1-3-5-3-2-|
B |-6-0-0-5-0-0-5/6-|-6-5-3-1-3-5-3-2-|
    * *   * *       * * * * * * * *

 [Final chorus] X1(X3 1st part and X1 2nd)
C#|--------------------------------------------------------------|
G#|--------------------------------------------------------------|
E |--------------------------------------------------------------|
B |-------------------------3-3-3--------------------5-5-5--8-8-8|
F#|-6-6-6-6-6-6-6---1-1-1---1-1-1---5--5-5-5-5-5-5-5-3-3-3--6-6-6|
B |-6-6-6-6-6-6-6-0-1-1-1-0-------0-5--5-5-5-5-5-5-5-------------|

C#|----------------------------------------------------------------|
G#|----------------------------------------------------------------|
E |----------------------------------------------------------------|
B |-------------------------3-3-3----------------------------------|
F#|-6-6-6-6-6-6-6---1-1-1---1-1-1---5--5-5-5-5-5-5-5-5-5-5-5-5-----|
B |-6-6-6-6-6-6-6-0-1-1-1-0-------0-5--5-5-5-5-5-5-5-5-5-5-5-5-13\-|
                                       * * * * * * * * * * * *

 [Bridge] X4
C#|-------------------------------------------------------|
G#|-------------------------------------------------------|
E |-------------------------------------------------------|
B |-------------------------------------------------------|
F#|-7-7-10-10-7-7-7-7-8-8-7-7-10-10-7-7-7-7-7-8-7-7-<7>^v-|
B |-------------------------------------------------------|
    * *  *  * * * * * * * * *  *  * * * * * * * * *

 [Outro] X4(last time 3-\1 changes to palm muted 0-0-0-0)
C#|------------------------------------------|
G#|------------------------------------------|
E |------------------------------------------|
B |------------------------------------------|
F#|-0-0--0-0---0-0--0-0--0-0-0-0--0-0-0-3-\1-|
B |-0-0--0-0---0-0--0-0--0-0-0-0--0-0-0-3-\1-|
    * *  * *   * *  * *  * * * *  * * *

************************************

| h  Hammer-on
| /  Slide up
| \  Slide down
| *  Palm Mute

************************************

            
            
Suggest correction
Creating personal tab
Creating personal tab
You can edit any tab online and save it as your Personal.

You can edit, replace or remove any tab part or add personal notes – all changes will be seen only by you.

Personal tabs can be accessed anytime from any device, even offline.
Learn more »
comments
print report bad tab
guest
You may want to rate the tab now too:
select rating
Wanna post a correction for this tab? Suggest correction