Oops, an error
Loading. Please wait.
We have an official Psychosocial tab made by UG professional guitarists. Check out the tab »
×

Psychosocial intro tab

150,010 views 51 this week
8 commentsread comments
1 2 3 4 5
x 15
add to favorites
×
Save as Personal and add changes to this tab that will be seen only by you. Learn more ›
×
You can save this tab as Personal to edit and correct it or add notes. All changes will be seen only by you. Learn more »
launch autoscroll
font size
0
reset
how to read this tab
guitar tuner
backing track
0:00
0:00
edit
Autoscroll
slow
fast
+/-
esc
set tempo
stop
Just the intro guys. Don't sweat cause it's not the full song. 
Palm muting always used on the top string to get out that husky sound we love about this tune!

Tuning:

A E A D F# B 
 

[Intro]

guitar 1
B |-----------------------------------------------------|
F#|-----------------------------------------------------|
D |-----------------------------------------------------|
A |-------------6*---------------------------6*---------|
E |-----------------------------------------------------|
A |-0--0--0-0-0-----0--3h5-0-0-0-0-0-0-0-0-0-----0--3h5-|
PM  .  .  . . .     .      . . . . . . . . .     .

B |---------------------------------------------------------|
F#|---------------------------------------------------------|
D |---------------------------------------------------------|
A |----------6*---------------------------------------------|
E |---------------------------------------------------------|
A |-0--0-0-0-----0--3h5-0-0-5-5-5-5-6-6-6-6-8-8-8-8-7-7-7-7-|(x2)
PM  .  . . .     .      . . . . . . . . . . . . . . . . . .

B |-----------------------------------------------------------------|
F#|-----------------------------------------------------------------|
D |-----------------------------------------------------------------|
A |-----------------------------------------------------------------|
E |-----------------------------------------------------------------|
A |-5-5-5-5-6-6-6-6-8-8-8-8-7-7-7-7-5-5-5-5-6-6-6-6-8-8-8-8-7-7-7-7-|
PM  . . . . . . . . . . . . . . . . . . . . . . . . . . . . . . . .

B |-----------------------------------------|
F#|-----------------------------------------|
D |-----------------------------------------|
A |-----------------------------------------|
E |-----------------------------------------|
A |-5-5-5-5-5-5-5-5-6-6-6-6-8-8-8-8-6v--5-6-|


[Intro]

guitar 2
B |------------------------------------------------------|
F#|------------------------------------------------------|
D |------------------------------------------------------|
A |------------------------------------------------------|
E |-0----------------------------------------------------|
A |-0--------------------------------------------0--3h5--|
PM  .                                            .

B |---------------------------------------------------------|
F#|---------------------------------------------------------|
D |---------------------------------------------------------|
A |----------6*---------------------------------------------|
E |-------------------------6-6-6-6-7-7-7-7-9-9-9-9-8-8-8-8-|
A |-0--0-0-0-----0--3h5-0-0---------------------------------|(x2)
PM  .  . . .     .      . . . . . . . . . . . . . . . . . .

B |-----------------------------------------------------------------|
F#|-----------------------------------------------------------------|
D |-----------------------------------------------------------------|
A |-----------------------------------------------------------------|
E |-6-6-6-6-7-7-7-7-9-9-9-9-8-8-8-8-6-6-6-6-7-7-7-7-9-9-9-9-8-8-8-8-|
A |-----------------------------------------------------------------|
PM  . . . . . . . . . . . . . . . . . . . . . . . . . . . . . . . .

B |---------------------------------------------|
F#|---------------------------------------------|
D |---------------------------------------------|
A |---------------------------------------------|
E |-6-6-6-6-6-6-6-6-7-7-7-7-9-9-9-9-8-8-8-8-12\-|
A |-----------------------------------------12\-|



************************************

| *   Natural harmonic
| h   Hammer-on
| PM  Palm mute
| \   Slide down

************************************

            
            
Suggest correction
Creating personal tab
Creating personal tab
You can edit any tab online and save it as your Personal.

You can edit, replace or remove any tab part or add personal notes – all changes will be seen only by you.

Personal tabs can be accessed anytime from any device, even offline.
Learn more »
comments
print report bad tab
8 comments total. Showing first comments.
0 reply
lIl Jo$hY 36 Jul 25, 2008 11:56 AM

hey, no offence but i think u should listen to the intro a little more carefully. i just tabbed this, and im waiting for it to be approved. i thought that it was all opens in the intro, besides the ph and such...... its not. just listen to it again and you'll get what i mean.

0 reply
Liam Paul 10 Apr 17, 2009 05:30 PM

Uh, how do I set my amp so it'll sound halfway right? I have a Marshall MG15DFX and it refuses to sound good playing this. I tried cranking the gain, and the bass, but nothing works and I did raise E. Helpxorz!

+1 reply
Nedrogers 10 Oct 04, 2009 12:05 PM

Intermediate? Your ****ing high.

guest
You may want to rate the tab now too:
select rating
Wanna post a correction for this tab? Suggest correction