Oops, an error
Loading. Please wait.
We have an official Snuff tab made by UG professional guitarists. Check out the tab »
×
69,297 views 15 this week
8 commentsread comments
1 2 3 4 5
x 6
add to favorites
×
Save as Personal and add changes to this tab that will be seen only by you. Learn more ›
×
You can save this tab as Personal to edit and correct it or add notes. All changes will be seen only by you. Learn more »
launch autoscroll
font size
0
reset
how to read this tab
guitar tuner
backing track
0:00
0:00
edit
Autoscroll
slow
fast
+/-
esc
set tempo
stop
Author
Tabbers playing skills
intermediate ++
i tabbed it 1 and a half step down but i believe it is also drop b
4/4
    Gtr I
     W             +H      E  E +Q      W             +H      E  E +Q
||---------------|-------------------|--------------|--------------------||
||o-^1-----------|-(1)-----x---------|--------------|-------------------o||
||--^2-----------|-(2)-----x-!0-(0)--|-^2-----------|-(2)-------!0-(0)---||
||--^2-----------|-(2)-------!2-(2)--|-^3-----------|-(3)-------!0-(0)---||
||o-^0-----------|-(0)-------!2-(2)--|-^3-----------|-(3)-----x-!2-(2)--o||
||---------------|-----------!0-(0)--|-^1-----------|-(1)-----x-!3-(3)---||
|
|   Gtr II
|    Q  Q  Q  Q     Q   Q  Q     Q      Q  Q  Q  Q     Q   Q  Q     Q
||---------------|-------------------|--------------|--------------------||
||o--1-----1-----|--1------1---------|--------------|-------------------o||
||---2-----2-----|--2------2---------|--2-----2-----|--2------2----------||
||------2-----2--|------2--------2---|--3-----3-----|--3------3----------||
||o--------------|-------------------|-----3-----3--|------3--------3---o||
||---------------|-------------------|--------------|--------------------||


   Verse
     W             +H      E  E +Q      W             +H      E  E +Q   4x
||---------------|-------------------|--------------|-------------------||
||o-^1-----------|-(1)-----x---------|--------------|------------------o||
||--^2-----------|-(2)-----x-!0-(0)--|-^2-----------|-(2)-------!0-(0)--||
||--^2-----------|-(2)-------!2-(2)--|-^3-----------|-(3)-------!0-(0)--||
||o-^0-----------|-(0)-------!2-(2)--|-^3-----------|-(3)-----x-!2-(2)-o||
||---------------|-----------!0-(0)--|-^1-----------|-(1)-----x-!3-(3)--||
|
|    Q  Q  Q  Q     Q   Q  Q     Q      Q  Q  Q  Q     Q   Q  Q     Q   4x
||---------------|-------------------|--------------|-------------------||
||o--1-----1-----|--1------1---------|--------------|------------------o||
||---2-----2-----|--2------2---------|--2-----2-----|--2------2---------||
||------2-----2--|------2--------2---|--3-----3-----|--3------3---------||
||o--------------|-------------------|-----3-----3--|------3--------3--o||
||---------------|-------------------|--------------|-------------------||


 Pre-Chorus
  H    Q  E E   +E  E Q  E E +Q     H     Q   E E   +E E Q      E  E +E  E
|-------------|-------------------|---------------|------------------------|
|-1----1--1-1-|-(1)-1-1--1--------|---------------|------------------------|
|-2----2--2-2-|-(2)-2-2--2-0-(0)--|-2-----2---2-2-|-(2)2-2------2--0-(0)---|
|-2----2----2-|-(2)-2-2--2-2-(2)--|-3-----3---3-3-|-(3)3-3------3--0-(0)---|
|-0----0----0-|-(0)-0-0--0-2-(2)--|-3-----3--(3)3-|-(3)3-3------3--2-(2)-2-|
|-------------|------------0-(0)--|-1-----1--(1)1-|-(1)1-1------1--3-(3)-3-|
|
| H    H         H       E E +Q     H.        E E    E E E +E  +Q     E  E
|-------------|-------------------|---------------|------------------------|
|-1----3------|--5-------5S6-(6)--|-5---------3S1-|--3S5S3-(3)-(3)----1--0-|
|-2----4------|--5-------5S7-(7)--|-5---------4S2-|--4S5S4-(4)-(4)----2--0-|
|-------------|-------------------|---------------|------------------------|
|-------------|-------------------|---------------|------------------------|
|-------------|-------------------|---------------|------------------------|


  H    Q  E E   +E  E Q  E E +Q
|-------------|-------------------|
|-1----1--1-1-|-(1)-1-1--1--------|
|-2----2--2-2-|-(2)-2-2--2-0-(0)--|
|-2----2----2-|-(2)-2-2--2-2-(2)--|
|-0----0----0-|-(0)-0-0--0-2-(2)--|
|-------------|------------0-(0)--|
|
| H    H         H       E E +Q
|-------------|-------------------|
|-1----3------|--5-------6S8-(8)--|
|-2----4------|--5-------7S9-(9)--|
|-------------|-------------------|
|-------------|-------------------|
|-------------|-------------------|


  H          Q    E E   +E E Q      E  E +E  E
|---------------------|------------------------|
|---------------------|------------------------|
|-2----------2----2-2-|-(2)2-2------2--0-(0)---|
|-3----------3----3-3-|-(3)3-3------3--0-(0)---|
|-3----------3---(3)3-|-(3)3-3------3--2-(2)-2-|
|-1----------1---(1)1-|-(1)1-1------1--3-(3)-3-|
|
| E E E +E  +Q    E E    E E E +E  +Q     E  E
|---------------------|------------------------|
|-6S5-5-(5)-(5)---3S1-|--3S5S3-(3)-(3)----1--0-|
|-7S5-5-(5)-(5)---4S2-|--4S5S4-(4)-(4)----2--0-|
|---------------------|------------------------|
|---------------------|------------------------|
|---------------------|------------------------|


   Chorus
     H       Q   E E   +E  E  Q   E E +E  E
||--^3-------3---3-3-|-(3)-3--3---3-3-(3)-3-|
||o-^3-------3---3-3-|-(3)-3--3---3-3-(3)-3-|
||--^0-------0---0-0-|-(0)-0--0---0-0-(0)-0-|
||--^0-------0---0-0-|-(0)-0--0---0-0-(0)-0-|
||o-^2-------2---2-2-|-(2)-2--2---2-2-(2)-2-|
||--^3-------3---3-3-|-(3)-3--3-----3-(3)-3-|
|
|    Q   Q   Q   Q      Q     Q   Q    Q
||-------------------|----------------------|
||o-^3--^3--^3--^3---|-^3----^3--^3---^3----|
||--^0--^0--^0--^0---|-^0----^0--^0---^0----|
||--^0--^0--^0--^0---|-^0----^0--^0---^0----|
||o-^2--^2--^2--^2---|-^2----^2--^2---^2----|
||-------------------|----------------------|


   H              Q   E E   +E  E Q  E E +E  E 3x
|-^0--------------0---0-0-|-(0)-0-0--0-0-(0)-0-||
|-^1--------------1---1-1-|-(1)-1-1--1-1-(1)-1o||
|-^2--------------2---2-2-|-(2)-2-2--2-2-(2)-2-||
|-^2--------------2---2-2-|-(2)-2-2--2-2-(2)-2-||
|-^0--------------0---0-0-|-(0)-0-0--0-0-(0)-0o||
|-------------------------|--------------------||
|
|  E  E   E   E  +H         +W                 3x
|---------1---0--(0)------|-(0)----------------||
|-------------------------|-------------------o||
|-----2--(2)-(2)-(2)------|-(2)----------------||
|--2-(2)-(2)-(2)-(2)------|-(2)----------------||
|--0-(0)-(0)-(0)-(0)------|-(0)---------------o||
|-------------------------|--------------------||


   H       Q   E E   +E  E  Q   E E +E  E
|-^3-------3---3-3-|-(3)-3--3---3-3-(3)-3-|
|-^3-------3---3-3-|-(3)-3--3---3-3-(3)-3-|
|-^0-------0---0-0-|-(0)-0--0---0-0-(0)-0-|
|-^0-------0---0-0-|-(0)-0--0---0-0-(0)-0-|
|-^2-------2---2-2-|-(2)-2--2---2-2-(2)-2-|
|-^3-------3---3-3-|-(3)-3--3-----3-(3)-3-|
|
|  Q   Q   Q   Q      Q     Q   Q    Q
|------------------|----------------------|
|-^3--^3--^3--^3---|-^3----^3--^3---^3----|
|-^0--^0--^0--^0---|-^0----^0--^0---^0----|
|-^0--^0--^0--^0---|-^0----^0--^0---^0----|
|-^2--^2--^2--^2---|-^2----^2--^2---^2----|
|------------------|----------------------|


   H        Q    Q       Q   Q       Q     E  E
|-^1--------1----1-----|-1---1-------1-----1----|
|-^1--------1----1-----|-1---1-------1-----1----|
|-^2--------2----2-----|-2---2-------2-----2--0-|
|-^3--------3----3-----|-3---3-------3-----3--0-|
|-^3--------3----3-----|-3---3-------3-----3--2-|
|-^1--------1----1-----|-1---1-------1-----1--3-|
|
|  E E E E +E  E E +E    E E E E +E  E E  +E
|--------0-(0)---------|-------0-(0)------------|
|--------------1-------|-------------1----------|
|------2---------2-(2)-|-----2---------2--(2)---|
|----3-----------------|---3--------------------|
|----------------------|------------------------|
|--1-------------------|-1----------------------|


 Pre-Verse
  H         Q   E E   +E  E Q   E E  +Q
|-------------------|----------------------|
|-1---------1---1-1-|-(1)-1-1---1----------|
|-2---------2---2-2-|-(2)-2-2---2-0--(0)---|
|-2---------2-----2-|-(2)-2-2---2-2--(2)---|
|-0---------0-----0-|-(0)-0-0---0-2--(2)---|
|-------------------|-------------0--(0)---|
|
| E  E  E E E E E E    E  E E E E E   E  E
|-------------------|----------------------|
|-5--5--5-5-5-5-5-5-|--5--5-5-5-5-5--12S17-|
|-------------------|----------------------|
|-------------------|----------------------|
|-------------------|----------------------|
|-------------------|----------------------|
|
| Gtr IV
| E  E  E Q Q E       +E  Q   Q   Q.
|-------------------|----------------------|
|-------------------|----------------------|
|-2s14-12-9-7-5-----|-(5)-4---2---0--------|
|-------------------|----------------------|
|-------------------|----------------------|
|-------------------|----------------------|


   H         Q   E  E   +E  E Q  E E +E E
|---------------------|-------------------|
|---------------------|-------------------|
|--2---------2---2--2-|-(2)-2-2--2-0-(0)--|
|--3---------3---3--3-|-(3)-3-3--3-0-(0)--|
|--3---------3--(3)-3-|-(3)-3-3--3-2-(2)2-|
|--1---------1--(1)-1-|-(1)-1-1--1-3-(3)3-|
|
|  E  E  Q   Q   Q       Q    Q  Q    E E
|---------------------|-------------------|
|-17S10-10--10--10----|-10----8--8----5S3-|
|---------------------|-------------------|
|---------------------|-------------------|
|---------------------|-------------------|
|---------------------|-------------------|
|
|  W                    +W
|---------------------|-------------------|
|---------------------|-------------------|
|--2------------------|-(2)---------------|
|--2------------------|-(2)---------------|
|---------------------|-------------------|
|---------------------|-------------------|


  H           Q   E E   +E  E Q   E E  +Q
|---------------------|----------------------|
|-1-----------1---1-1-|-(1)-1-1---1----------|
|-2-----------2---2-2-|-(2)-2-2---2-0--(0)---|
|-2-----------2-----2-|-(2)-2-2---2-2--(2)---|
|-0-----------0-----0-|-(0)-0-0---0-2--(2)---|
|---------------------|-------------0--(0)---|
|
| E  E  E +E  E E E E    E  E E E E E   E  E
|---------------------|----------------------|
|-5S=8--5-(5)-5-5-5-5-|--5--5-5-5-5-5--12S17-|
|---------------------|----------------------|
|---------------------|----------------------|
|---------------------|----------------------|
|---------------------|----------------------|
|
| E  E  E  Q    Q   E   +E  Q   Q   Q.
|---------------------|----------------------|
|---------------------|----------------------|
|-2s14-12--9----7---5-|-(5)-4---2---0--------|
|---------------------|----------------------|
|---------------------|----------------------|
|---------------------|----------------------|


   H         Q   E  E   +E  E Q  E E +E E
|---------------------|-------------------|
|---------------------|-------------------|
|--2---------2---2--2-|-(2)-2-2--2-0-(0)--|
|--3---------3---3--3-|-(3)-3-3--3-0-(0)--|
|--3---------3--(3)-3-|-(3)-3-3--3-2-(2)2-|
|--1---------1--(1)-1-|-(1)-1-1--1-3-(3)3-|
|
|  E  E  Q   Q   Q       Q    Q  Q    E E
|---------------------|-------------------|
|-17S10-10--10--10----|-10----8--8----5S3-|
|---------------------|-------------------|
|---------------------|-------------------|
|---------------------|-------------------|
|---------------------|-------------------|
|
|  W                    +W
|---------------------|-------------------|
|---------------------|-------------------|
|--2------------------|-(2)---------------|
|--2------------------|-(2)---------------|
|---------------------|-------------------|
|---------------------|-------------------|


 Verse
   H      Q  E E   +E  E Q   E E +Q      H      Q   E  E   +E  E Q   E E +E  E
|----------------|--------------------|------------------|---------------------|
|--1------1--1-1-|-(1)-1-1---1--------|------------------|---------------------|
|--2------2--2-2-|-(2)-2-2---2-0-(0)--|--2------2---2--2-|-(2)-2-2---2-0-(0)---|
|--2------2----2-|-(2)-2-2---2-2-(2)--|--3------3---3--3-|-(3)-3-3---3-0-(0)---|
|--0------0----0-|-(0)-0-0---0-2-(2)--|--3------3--(3)-3-|-(3)-3-3---3-2-(2)-2-|
|----------------|-------------0-(0)--|--1------1--(1)-1-|-(1)-1-1---1-3-(3)-3-|
|
|  W                W                    W                  W
|----------------|--------------------|------------------|---------------------|
|--5-------------|--------------------|------------------|---------------------|
|----------------|--------------------|------------------|---------------------|
|----------------|--------------------|------------------|---------------------|
|----------------|--------------------|------------------|---------------------|
|----------------|--------------------|------------------|---------------------|
|
| Gtr V
|  <      <         <        <           <      <           <        <
|  Q  Q   Q  Q      Q    Q   Q    Q      Q  Q   Q   Q       Q    Q   Q    Q
|-12-----12------|-12-------12--------|-12-----12--------|-12-------12---------|
|----------------|--------------------|------------------|---------------------|
|----------------|--------------------|------------------|---------------------|
|----------------|--------------------|------------------|---------------------|
|----------------|--------------------|------------------|---------------------|
|----------------|--------------------|------------------|---------------------|


   H      Q  E E    +E  E Q   E E  +Q
|----------------|----------------------|
|--1------1--1-1-|--(1)-1-1---1---------|
|--2------2--2-2-|--(2)-2-2---2-0--(0)--|
|--2------2----2-|--(2)-2-2---2-2--(2)--|
|--0------0----0-|--(0)-0-0---0-2--(2)--|
|----------------|--------------0--(0)--|
|
|  W                +H        E Q.
|----------------|----------------------|
|-10-------------|-(10)-------x-5-------|
|----------------|----------------------|
|----------------|----------------------|
|----------------|----------------------|
|----------------|----------------------|
|
|  <      <          <        <
|  Q  Q   Q  Q       Q    Q   Q     Q
|-12-----12------|--12-------12---------|
|----------------|----------------------|
|----------------|----------------------|
|----------------|----------------------|
|----------------|----------------------|
|----------------|----------------------|


   H      Q   E  E   +E  E Q   E  E +E  E
|------------------|----------------------|
|------------------|----------------------|
|--2------2---2--2-|-(2)-2-2---2--0-(0)---|
|--3------3---3--3-|-(3)-3-3---3--0-(0)---|
|--3------3--(3)-3-|-(3)-3-3---3--2-(2)-2-|
|--1------1--(1)-1-|-(1)-1-1---1--3-(3)-3-|
|
|  W                 +H       +Q     E  E
|------------------|----------------------|
|--6---------------|-(6)------(6)----8S10-|
|------------------|----------------------|
|------------------|----------------------|
|------------------|----------------------|
|------------------|----------------------|
|
|  <      <           <        <
|  Q  Q   Q   Q       Q    Q   Q     Q
|-12-----12--------|-12-------12----------|
|------------------|----------------------|
|------------------|----------------------|
|------------------|----------------------|
|------------------|----------------------|
|------------------|----------------------|


   H      Q  E E    +E  E Q   E E  +Q
|----------------|----------------------|
|--1------1--1-1-|--(1)-1-1---1---------|
|--2------2--2-2-|--(2)-2-2---2-0--(0)--|
|--2------2----2-|--(2)-2-2---2-2--(2)--|
|--0------0----0-|--(0)-0-0---0-2--(2)--|
|----------------|--------------0--(0)--|
|
|  W                +H        E Q.
|----------------|----------------------|
|-10-------------|-(10)-------x-5-------|
|----------------|----------------------|
|----------------|----------------------|
|----------------|----------------------|
|----------------|----------------------|
|
|  <      <          <        <
|  Q  Q   Q  Q       Q    Q   Q     Q
|-12-----12------|--12-------12---------|
|----------------|----------------------|
|----------------|----------------------|
|----------------|----------------------|
|----------------|----------------------|
|----------------|----------------------|


   H      Q   E  E   +E  E Q   E  E +E  E
|------------------|----------------------|
|------------------|----------------------|
|--2------2---2--2-|-(2)-2-2---2--0-(0)---|
|--3------3---3--3-|-(3)-3-3---3--0-(0)---|
|--3------3--(3)-3-|-(3)-3-3---3--2-(2)-2-|
|--1------1--(1)-1-|-(1)-1-1---1--3-(3)-3-|
|
|  W                 +H       +Q     E  E
|------------------|-----------------8----|
|--6---------------|-(6)------(6)----8S10-|
|------------------|----------------------|
|------------------|----------------------|
|------------------|----------------------|
|------------------|----------------------|
|
|  <      <           <        <
|  Q  Q   Q   Q       Q    Q   Q     Q
|-12-----12--------|-12-------12----------|
|------------------|----------------------|
|------------------|----------------------|
|------------------|----------------------|
|------------------|----------------------|
|------------------|----------------------|


   H    Q  E E    +E  E Q  E E  +Q     H    Q   E  E   +E  E Q  E   E  +E  E
|--------------|---------------------|---------------|-----------------------|
|--1----1--1-1-|--(1)-1-1--1---------|---------------|-----------------------|
|--2----2--2-2-|--(2)-2-2--2-0--(0)--|-2----2---2--2-|-(2)-2-2--2---0--(0)---|
|--2----2----2-|--(2)-2-2--2-2--(2)--|-3----3---3--3-|-(3)-3-3--3---0--(0)---|
|--0----0----0-|--(0)-0-0--0-2--(2)--|-3----3--(3)-3-|-(3)-3-3--3---2--(2)-2-|
|--------------|-------------0--(0)--|-1----1--(1)-1-|-(1)-1-1--1---3--(3)-3-|
|
|  W              +H       E Q.        W                W
|--------------|---------------------|---------------|-----------------------|
|-10-----------|-(10)------x-5-------|-6-------------|-----------------------|
|--------------|---------------------|---------------|-----------------------|
|--------------|---------------------|---------------|-----------------------|
|--------------|---------------------|---------------|-----------------------|
|--------------|---------------------|---------------|-----------------------|
|
| Gtr III
|  W               W                   W                H       Q   Q
|--------------|---------------------|---------------|-----------------------|
|--------------|---------------------|---------------|-----------------------|
|--------------|---------------------|---------------|-----------------------|
|--------------|---------------------|---------------|-----------------------|
|--------------|---------------------|---------------|------------/15\-------|
|--------------|---------------------|---------------|------------/15\-------|


   Chorus
    Gtr III
    W             +W              W                      +W      3x
||--------------|---------------|----------------------|---------||
||o-------------|---------------|----------------------|--------o||
||--------------|---------------|----------------------|---------||
||--5-----------|-(5)-----------|-7--------------------|-(7)-----||
||o-5-----------|-(5)-----------|-7--------------------|-(7)----o||
||--3-----------|-(3)-----------|-5--------------------|-(5)-----||
|
|   Q  Q  Q  Q     Q   Q  Q  Q    E  E   E   E  +H       +W      3x
||--------------|---------------|--------1---0--(0)----|-(0)-----||
||o-3--3--3--3--|--3---3--3--3--|----------------------|--------o||
||--0--0--0--0--|--0---0--0--0--|----2--(2)-(2)-(2)----|-(2)-----||
||--0--0--0--0--|--0---0--0--0--|-2-(2)-(2)-(2)-(2)----|-(2)-----||
||o-2--2--2--2--|--2---2--2--2--|-0-(0)-(0)-(0)-(0)----|-(0)----o||
||--------------|---------------|----------------------|---------||


                                PM------------------------------------|
  W             +W              E E E E  E  E E  E    E E E E  E  E E  E
|-------------|---------------|---------------------|---------------------|
|-------------|---------------|---------------------|---------------------|
|-------------|---------------|---------------------|---------------------|
|-5-----------|-(5)-----------|---------------------|---------------------|
|-5-----------|-(5)-----------|-3-3-3-3--3--3-3--3--|-3-3-3-3--3--3-5--5--|
|-3-----------|-(3)-----------|-1-1-1-1--1--1-1--1--|-1-1-1-1--1--1-3--3--|
|
| Q  Q  Q  Q     Q   Q  Q  Q    E E E E +E  E E +E    E E E E +E  E E +E
|-------------|---------------|-------0-(0)---------|-------0-(0)---------|
|-3--3--3--3--|--3---3--3--3--|-------------1-------|-------------1-------|
|-0--0--0--0--|--0---0--0--0--|-----2---------2-(2)-|-----2---------2-(2)-|
|-0--0--0--0--|--0---0--0--0--|---3-----------------|---3-----------------|
|-2--2--2--2--|--2---2--2--2--|---------------------|---------------------|
|-------------|---------------|-1-------------------|-1-------------------|


 Interlude
                                  PM
  E  E  E  E E  E E E    E  E E E E E  +E  +E
|---------------------|------------------------|
|---------------------|------------------------|
|-2--2--2--2-2--2-2-2-|--2--2-2-2-2------------|
|-2--2--2--2-2--2-2-2-|--2--2-2-2-2-2--(2)-(2)-|
|-0--0--0--0-0--0-0-0-|--0--0-0-0-0-2--(2)-(2)-|
|---------------------|-------------0--(0)-(0)-|
|
| Gtr IV
| E  E  E  Q    Q   E   +E  Q   Q   Q.
|-5s17-15-12---10---8-|-(8)-7---5---3----------|
|---------------------|------------------------|
|-2s14-12--9----7---5-|-(5)-4---2---0----------|
|---------------------|------------------------|
|---------------------|------------------------|
|---------------------|------------------------|


                              PM
  E E E E E E E E    E  E E E E E +E  +E
|-----------------|-----------------------|
|-----------------|-----------------------|
|-----------------|-------------5-(5)-(5)-|
|-3-3-3-3-3-3-3-3-|--3--3-3-3-3-5-(5)-(5)-|
|-3-3-3-3-3-3-3-3-|--3--3-3-3-3-3-(3)-(3)-|
|-1-1-1-1-1-1-1-1-|--1--1-1-1-1-----------|
|
| W                 +W
|-5---------------|-(5)-------------------|
|-----------------|-----------------------|
|-2---------------|-(2)-------------------|
|-----------------|-----------------------|
|-----------------|-----------------------|
|-----------------|-----------------------|


                                  PM
  E  E  E  E E  E E E    E  E E E E E  +E  +E
|---------------------|------------------------|
|---------------------|------------------------|
|-2--2--2--2-2--2-2-2-|--2--2-2-2-2------------|
|-2--2--2--2-2--2-2-2-|--2--2-2-2-2-2--(2)-(2)-|
|-0--0--0--0-0--0-0-0-|--0--0-0-0-0-2--(2)-(2)-|
|---------------------|-------------0--(0)-(0)-|
|
| E  E  E  Q    Q   E   +E  Q   Q   Q.
|-5s17-15-12---10---8-|-(8)-7---5---7----------|
|---------------------|------------------------|
|-2s14-12--9----7---5-|-(5)-4---2---0----------|
|---------------------|------------------------|
|---------------------|------------------------|
|---------------------|------------------------|


                              PM
  E E E E E E E E    E  E E E E E +E  +E
|-----------------|-----------------------|
|-----------------|-----------------------|
|-----------------|-------------5-(5)-(5)-|
|-3-3-3-3-3-3-3-3-|--3--3-3-3-3-5-(5)-(5)-|
|-3-3-3-3-3-3-3-3-|--3--3-3-3-3-3-(3)-(3)-|
|-1-1-1-1-1-1-1-1-|--1--1-1-1-1-----------|
|
| W                 +W
|-8---------------|-(8)-------------------|
|-----------------|-----------------------|
|-2---------------|-(2)-------------------|
|-2---------------|-(2)-------------------|
|-----------------|-----------------------|
|-----------------|-----------------------|


                                  PM
  E  E  E  E E  E E E    E  E E E E E  +E  +E
|---------------------|------------------------|
|---------------------|------------------------|
|-2--2--2--2-2--2-2-2-|--2--2-2-2-2------------|
|-2--2--2--2-2--2-2-2-|--2--2-2-2-2-2--(2)-(2)-|
|-0--0--0--0-0--0-0-0-|--0--0-0-0-0-2--(2)-(2)-|
|---------------------|-------------0--(0)-(0)-|
|
| E  E  E  Q    Q   E   +E  Q   Q   Q.
|-5s17-15-12---10---8-|-(8)-7---5---3----------|
|---------------------|------------------------|
|-2s14-12--9----7---5-|-(5)-4---2---0----------|
|---------------------|------------------------|
|---------------------|------------------------|
|---------------------|------------------------|


                              PM
  E E E E E E E E    E  E E E E E +E  +E
|-----------------|-----------------------|
|-----------------|-----------------------|
|-----------------|-------------5-(5)-(5)-|
|-3-3-3-3-3-3-3-3-|--3--3-3-3-3-5-(5)-(5)-|
|-3-3-3-3-3-3-3-3-|--3--3-3-3-3-3-(3)-(3)-|
|-1-1-1-1-1-1-1-1-|--1--1-1-1-1-----------|
|
| W                 +W
|-5---------------|-(5)-------------------|
|-----------------|-----------------------|
|-2---------------|-(2)-------------------|
|-----------------|-----------------------|
|-----------------|-----------------------|
|-----------------|-----------------------|


                                  PM
  E  E  E  E E  E E E    E  E E E E E  +E  +E
|---------------------|------------------------|
|---------------------|------------------------|
|-2--2--2--2-2--2-2-2-|--2--2-2-2-2------------|
|-2--2--2--2-2--2-2-2-|--2--2-2-2-2-2--(2)-(2)-|
|-0--0--0--0-0--0-0-0-|--0--0-0-0-0-2--(2)-(2)-|
|---------------------|-------------0--(0)-(0)-|
|
| E  E  E  Q    Q   E   +E  Q   Q   Q.
|-5s17-15-12---10---8-|-(8)-7---5---7----------|
|---------------------|------------------------|
|-2s14-12--9----7---5-|-(5)-4---2---0----------|
|---------------------|------------------------|
|---------------------|------------------------|
|---------------------|------------------------|


                     PM-------|
  E E E E E E E E    E  E E E E E Q
|-----------------|-------------------|
|-----------------|-------------------|
|-----------------|---------------5\--|
|-3-3-3-3-3-3-3-3-|---------------5\--|
|-3-3-3-3-3-3-3-3-|--3--3-3-3-3-3-3\--|
|-1-1-1-1-1-1-1-1-|--1--1-1-1-1-1-----|
|
| W                 +W
|-8---------------|-(8)---------------|
|-----------------|-------------------|
|-----------------|-------------------|
|-2---------------|-(2)---------------|
|-----------------|-------------------|
|-----------------|-------------------|


   Chorus
    E E E E E E E E   E E E E E E E E
||------------------|-----------------|
||o-----------------|-----------------|
||------------------|-----------------|
||--5-5-5-5-5-5-5-5-|-5-5-5-5-5-5-5-5-|
||o-5-5-5-5-5-5-5-5-|-5-5-5-5-5-5-5-5-|
||--3-3-3-3-3-3-3-3-|-3-3-3-3-3-3-3-3-|
|
|   Gtr II
|   Q   Q   Q   Q     Q   Q   Q   Q
||------------------|-----------------|
||o-3---3---3---3---|-3---3---3---3---|
||--0---0---0---0---|-0---0---0---0---|
||--0---0---0---0---|-0---0---0---0---|
||o-2---2---2---2---|-2---2---2---2---|
||------------------|-----------------|


  E  E   E   E   E  E E E    E  E E E E E E E
|-------------------------|-------------------||
|-------------------------|------------------o||
|-------------------------|-------------------||
|-7--7---7---7---7--7-7-7-|--7--7-7-7-7-7-7-7-||
|-7--7---7---7---7--7-7-7-|--7--7-7-7-7-7-7-7o||
|-5--5---5---5---5--5-5-5-|--5--5-5-5-5-5-5-5-||
|
| E  E   E   E  +H          +W
|--------1---0--(0)-------|-(0)---------------||
|-------------------------|------------------o||
|----2--(2)-(2)-(2)-------|-(2)---------------||
|-2-(2)-(2)-(2)-(2)-------|-(2)---------------||
|-0-(0)-(0)-(0)-(0)-------|-(0)--------------o||
|-------------------------|-------------------||


  E E E E E E E E   E E Q   +H
|-----------------|-----------------|
|-----------------|-----------------|
|-----------------|-----5---(5)\----|
|-5-5-5-5-5-5-5-5-|-5-5-7---(7)\----|
|-5-5-5-5-5-5-5-5-|-5-5-------------|
|-3-3-3-3-3-3-3-3-|-3-3-------------|
|
| Q   Q   Q   Q     Q   H.
|-----------------|-----------------|
|-3---3---3---3---|-3---------------|
|-0---0---0---0---|-0---------------|
|-0---0---0---0---|-0---------------|
|-2---2---2---2---|-2---------------|
|-----------------|-----------------|


  E  E   E   E   E  E E E    E  E E E E E E E
|-------------------------|-------------------|
|-------------------------|-------------------|
|-------------------------|-------------------|
|-7--7---7---7---7--7-7-7-|--7--7-7-7-7-7-7-7-|
|-7--7---7---7---7--7-7-7-|--7--7-7-7-7-7-7-7-|
|-5--5---5---5---5--5-5-5-|--5--5-5-5-5-5-5-5-|
|
| E  E   E   E  +H          +W
|--------1---0--(0)-------|-(0)---------------|
|-------------------------|-------------------|
|----2--(2)-(2)-(2)-------|-(2)---------------|
|-2-(2)-(2)-(2)-(2)-------|-(2)---------------|
|-0-(0)-(0)-(0)-(0)-------|-(0)---------------|
|-------------------------|-------------------|


  E E E E E E E E   E E E E E E E E
|-----------------|-----------------|
|-----------------|-----------------|
|-----------------|-----------------|
|-5-5-5-5-5-5-5-5-|-5-5-5-5-5-5-5-5-|
|-5-5-5-5-5-5-5-5-|-5-5-5-5-5-5-5-5-|
|-3-3-3-3-3-3-3-3-|-3-3-3-3-3-3-3-3-|
|
| Q   Q   Q   Q     Q   Q   Q   Q
|-----------------|-----------------|
|-3---3---3---3---|-3---3---3---3---|
|-0---0---0---0---|-0---0---0---0---|
|-0---0---0---0---|-0---0---0---0---|
|-2---2---2---2---|-2---2---2---2---|
|-----------------|-----------------|


  E E E E  E  E E  E    E E E E  E  E E  E
|---------------------|---------------------|
|---------------------|---------------------|
|---------------------|---------------------|
|-3-3-3-3--3--3-3--3--|-3-3-3-3--3--3-3--5--|
|-3-3-3-3--3--3-3--3--|-3-3-3-3--3--3-3--5--|
|-1-1-1-1--1--1-1--1--|-1-1-1-1--1--1-1--3--|
|
| E E E E +E  E E +E    E E E E +E  E E +E
|-------0-(0)---------|-------0-(0)---------|
|-------------1-------|-------------1-------|
|-----2---------2-(2)-|-----2---------2-(2)-|
|---3-----------------|---3-----------------|
|---------------------|---------------------|
|-1-------------------|-1-------------------|


  E E E E E E E E   E E E E E E E E   E E E E E E E E   E E E E  E  E  E  E
|-----------------|-----------------|-----------------|---------------------|
|-----------------|-----------------|-----------------|---------------------|
|-2-2-2-2-4-4-4-4-|-5-5-5-5-9-9-9-9-|---------4-4-4-4-|-5-5-5-5-10-10-10-10-|
|-2-2-2-2-2-2-2-2-|-5-5-5-5-9-9-9-9-|-3-3-3-3-5-5-5-5-|-5-5-5-5-10-10-10-10-|
|-0-0-0-0-2-2-2-2-|-3-3-3-3-7-7-7-7-|-3-3-3-3-2-2-2-2-|-3-3-3-3--8--8--8--8-|
|-----------------|-----------------|-1-1-1-1---------|---------------------|


                                            G
  >
  W                     +W
|---------------------|---------------------|
|---------------------|---------------------|
|-2-------------------|-(2)-----------------|
|-2-------------------|-(2)-----------------|
|-0-------------------|-(0)-----------------|
|---------------------|---------------------|
|
| Gtr I
| H          Q    E E   +E  E Q   E E  +Q
|---------------------|---------------------|
|-1----------1----1-1-|-(1)-1-1---1---------|
|-2----------2----2-2-|-(2)-2-2---2-0--(0)--|
|-2----------2------2-|-(2)-2-2---2-2--(2)--|
|-0----------0------0-|-(0)-0-0---0-2--(2)--|
|---------------------|-------------0--(0)--|
|
| Gtr IV
| E  E  E  Q    Q   E   +E  Q   Q   Q.
|-5s17-15-12---10---8-|-(8)-7---5---3-------|
|---------------------|---------------------|
|-2s14-12--9----7---5-|-(5)-4---2---0-------|
|---------------------|---------------------|
|---------------------|---------------------|
|---------------------|---------------------|


 tr V
  H     H           H        H
|----------------|---------------------|
|------10--------|--8------------------|
|----------------|----------10---------|
|-------7--------|--5------------------|
|----------------|-----------8---------|
|----------------|---------------------|
|
| H     Q   E  E   +E  E Q   E E +E  E
|----------------|---------------------|
|----------------|---------------------|
|-2-----2---2--2-|-(2)-2-2---2-0-(0)---|
|-3-----3---3--3-|-(3)-3-3---3-0-(0)---|
|-3-----3--(3)-3-|-(3)-3-3---3-2-(2)-2-|
|-1-----1--(1)-1-|-(1)-1-1---1-3-(3)-3-|
|
| W                +W
|-5--------------|-(5)-----------------|
|----------------|---------------------|
|-2--------------|-(2)-----------------|
|----------------|---------------------|
|----------------|---------------------|
|----------------|---------------------|


  Gtr I
  H          Q    E E   +E  E Q   E E  +Q
|---------------------|---------------------|
|-1----------1----1-1-|-(1)-1-1---1---------|
|-2----------2----2-2-|-(2)-2-2---2-0--(0)--|
|-2----------2------2-|-(2)-2-2---2-2--(2)--|
|-0----------0------0-|-(0)-0-0---0-2--(2)--|
|---------------------|-------------0--(0)--|
|
| Gtr V
| W                      H
|---------------------|---------------------|
|---------------------|---------------------|
|-9-------------------|---------------------|
|---------------------|---------------------|
|-7-------------------|---------------------|
|---------------------|---------------------|
|
| E  E  E  Q    Q   E   +E  Q   Q   Q.
|-5s17-15-12---10---8-|-(8)-7---5---7-------|
|---------------------|---------------------|
|-2s14-12--9----7---5-|-(5)-4---2---0-------|
|---------------------|---------------------|
|---------------------|---------------------|
|---------------------|---------------------|


  H.=H
  H     Q   E  E   +E  E Q   E E +E  E
|----------------|---------------------|
|----------------|---------------------|
|-2-----2---2--2-|-(2)-2-2---2-0-(0)---|
|-3-----3---3--3-|-(3)-3-3---3-0-(0)---|
|-3-----3--(3)-3-|-(3)-3-3---3-2-(2)-2-|
|-1-----1--(1)-1-|-(1)-1-1---1-3-(3)-3-|
|
| H     H           H        H
|----------------|---------------------|
|------10--------|--8------------------|
|----------------|----------10---------|
|-------7--------|--5------------------|
|----------------|-----------8---------|
|----------------|---------------------|
|
| W                +W
|-8--------------|-(8)-----------------|
|----------------|---------------------|
|----------------|---------------------|
|-2--------------|-(2)-----------------|
|----------------|---------------------|
|----------------|---------------------|


  Q=110
   W           +W           +W           +W
|------------|------------|------------|--------|
|-^1---------|-(1)--------|-(1)--------|-(1)----|
|-^2---------|-(2)--------|-(2)--------|-(2)----|
|-^2---------|-(2)--------|-(2)--------|-(2)----|
|-^0---------|-(0)--------|-(0)--------|-(0)----|
|------------|------------|------------|--------|
|
|  W           +W           +W           +W
|------------|------------|------------|--------|
|------------|------------|------------|--------|
|--9---------|-(9)--------|-(9)--------|-(9)----|
|------------|------------|------------|--------|
|--7---------|-(7)--------|-(7)--------|-(7)----|
|------------|------------|------------|--------|
|
| +W           +W           +W           +W
|-(8)--------|-(8)--------|-(8)--------|-(8)----|
|------------|------------|------------|--------|
|------------|------------|------------|--------|
|-(2)--------|-(2)--------|-(2)--------|-(2)----|
|------------|------------|------------|--------|
|------------|------------|------------|--------|

            
            
Suggest correction
Creating personal tab
Creating personal tab
You can edit any tab online and save it as your Personal.

You can edit, replace or remove any tab part or add personal notes – all changes will be seen only by you.

Personal tabs can be accessed anytime from any device, even offline.
Learn more »
comments
print report bad tab
8 comments total. Showing first comments.
0 reply
Grungy_Guy 20 Dec 02, 2008 06:02 AM

keep this in my favs and when my guitar is fixed ill try it out to see if its good since it looks so so so so good!!

-1 reply
JC XSiC RippINX 10 Dec 21, 2008 04:55 PM

this song deffinately isnt in half step. try open D

+1 reply
dbag2738 10 Dec 30, 2008 08:58 AM

this songs in drop b

guest
You may want to rate the tab now too:
select rating
Wanna post a correction for this tab? Suggest correction