Oops, an error
Loading. Please wait.
We have an official Sulfur tab made by UG professional guitarists. Check out the tab »
×
156,027 views 114 this week
17 commentsread comments
1 2 3 4 5
x 61
add to favorites
×
Save as Personal and add changes to this tab that will be seen only by you. Learn more ›
×
You can save this tab as Personal to edit and correct it or add notes. All changes will be seen only by you. Learn more »
launch autoscroll
font size
0
reset
how to read this tab
guitar tuner
backing track
0:00
0:00
edit
Autoscroll
slow
fast
+/-
esc
set tempo
stop
[Intro]

Intro A
         
C#|-----|-------------------------------| x4 
G#|-----|-------------------------------|
E |-----|-------------------------------|
B |-----|--------3---5---5--4---3---5---|
F#|-----|-8--7---3---5---3--2---3---5---|
B |-19/-|-6--5---3---5----------3---5---|


Intro B

C#|---------------------------------------------------------------------| x2 
G#|---------------------------------------------------------------------|
E |---------------------------------------------------------------------|
B |---------------------------------------------------------------------|
F#|---------------------------------<3-----<2---------------------------|
B |-<6-----<5-----<3-----<5---------------------<3-----<5---------------|


[Riff 1]

C#|---------------------------------------------------------------------|
G#|---------------------------------------------------------------------|
E |---------------------------------------------------------------------|
B |---------------------------------------------------------------------|
F#|----------------------------------------------5h6p5----5---------3h5-|
B |-4b1/2--p0-0-0-0-0-0-0-1b1/2--p0-0-0-0-0-0-0---------6---6-5-3-5-----|
              . . . . . .           . . . . . .         .   . . . .

C#|---------------------------------------------------------------------|
G#|---------------------------------------------------------------------|
E |---------------------------------------------------------------------|
B |---------------------------------------------------------------------|
F#|-------------------------------------------------------5h6p5---5-8-6-|
B |-0-0-0-0-0-0-4b1/2-p0-0-0-0-0-0-0-1b1/2-p0-0-0-0-0-0-0-------6-------|
    . . . . . .          . . . . . .          . . . . . .       . . . .

C#|-----------------------|---------------------------------------------|
G#|-----------------------|---------------------------------------------|
E |-----------------------|---------------------------------------------|
B |-----------------------|---------------------------------------------|
F#|-5---5h6p5---5---------|---------------------------------------------|
B |---6-------6---6-5-3-5-|-4b1/2-p0-0-0-0-0-0-0--1b1/2-p0-0-0-0-0-0-0--|
    . .       .   . . . .            . . . . . .           . . . . . .

C#|---------------------------------------------------------------------|
G#|---------------------------------------------------------------------|
E |---------------------------------------------------------------------|
B |---------------------------------------------------------------------|
F#|-5h6p5---5---------3h5-----------------------------------------------|
B |-------6---6-5-3-5-----0-0-0-0-0-0-4b1/2-p0-0-0-0-0-0-0--1b1/2-p0----|

C#|--------------------------------------------------------------------------------|
G#|--------------------------------------------------------------------------------|
E |--------------------------------------------------------------------------------|
B |--------------------------------------------------------------------------------|
F#|-------------5h6p5---5-8-6-5---5h6p5---5----------------------------------------|
B |-0-0-0-0-0-0-------6---------6-------6---6-5-3-5--4b1/2-p0-0-0-0-0-0-0-
C#|--------------------------------------------------------------------------------|
G#|--------------------------------------------------------------------------------|
E |--------------------------------------------------------------------------------|
B |--------------------------------------------------------------------------------|
F#|-----------------------5h6p5---5---------3h5------------------------------------|
B |-1b1/2-p0-0-0-0-0-0-0--------6---6-5-3-5-----0-0-0-0-0-0-4b1/2-p0-0-0-0---------|
             . . . . . .        .   . . . .     . . . . . .          . . .

C#|---------------------------------------------------------------------|
G#|---------------------------------------------------------------------|
E |---------------------------------------------------------------------|
B |---------------------------------------------------------------------|
F#|-----------------------------5h6p5---5-8-6-5---5h6p5----5------------|
B |-0-0-0-1b1/2-p0-0-0-0-0-0-0--------6---------6--------6---6-5-3-5----|
    . . .          . . . . . .        . . . . . .        .   . . . .


PLAY INTRO A x2

C#|-------------------------------|  
G#|-------------------------------|
E |-------------------------------|
B |--------3---5---5--4---3---5---|
F#|-8--7---3---5---3--2---3---5---|
B |-6--5---3---5----------3---5---|


[Riff 1 ]

C#|---------------------------------------------------------------------|
G#|---------------------------------------------------------------------|
E |---------------------------------------------------------------------|
B |---------------------------------------------------------------------|
F#|----------------------------------------------5h6p5----5---------3h5-|
B |-4b1/2--p0-0-0-0-0-0-0--1b1/2--p0-0-0-0-0-0-0--------6---6-5-3-5-----|
              . . . . . .            . . . . . .        .   . . . .

C#|---------------------------------------------------------------------|
G#|---------------------------------------------------------------------|
E |---------------------------------------------------------------------|
B |---------------------------------------------------------------------|
F#|------------------------------------------------------5h6p5---5-8-6--|
B |-0-0-0-0-0-0-4b1/2-p0-0-0-0-0-0-0-1b1/2-p0-0-0-0-0-0-0------6--------|
    . . . . . .          . . . . . .          . . . . . .      . . . .

C#|---------------------------------------------------------------------|
G#|---------------------------------------------------------------------|
E |---------------------------------------------------------------------|
B |---------------------------------------------------------------------|
F#|-5---5h6p5---5-------------------------------------------------------|
B |---6-------6---6-5-3-5--4b1/2-p0-0-0-0-0-0-0--1b1/2-p0-0-0-0-0-0-0---|
    . .       .   . . . .           . . . . . .           . . . . . .
C#|-------------------------------------------------------------------------|
G#|-------------------------------------------------------------------------|
E |-------------------------------------------------------------------------|
B |-------------------------------------------------------------------------|
F#|-5h6p5---5---------3h5---------------------------------------------------|
B |-------6---6-5-3-5-----0-0-0-0-0-0-4b1/2-p0-0-0-0-0-0-0-1b1/2-p0-0-0-0-0-|
          .   . . . .     . . . . . .          . . . . . .          . . . .

C#|---------------------------------------------------------------------|
G#|---------------------------------------------------------------------|
E |---------------------------------------------------------------------|
B |---------------------------------------------------------------------|
F#|-----5h6p5---5-8-6-5---5h6p5---5-------------------------------------|
B |-0-0-------6---------6-------6---6-5-3-5-----------------------------|
    . .       . . . . . .       .   . . . .


[Chorus]

C#|---------------------------------------------------------------------|
G#|---------------------------------------------------------------------|
E |-------------7---7-7-7-----------------------7---7-7-7--x-x-x-x------|
B |-0-0---5h6---7---7-7-7--8-7-5----0-0---5h6---7---7-7-7--x-x-x-x------|
F#|-0-0---5h6---5---5-5-5--------8--0-0---5h6---5---5-5-5--x-x-x-x------|
B |-0-0---5h6-----------------------0-0---5h6--------------x-x-x-x------|

C#|---------------------------------------------------------------------|
G#|---------------------------------------------------------------------|
E |---------------------------------------------------------------------|
B |---------------------------------------------------------------------|
F#|-----------------------------------------------------6-5-3-----------|
B |-1-1h3-1-0-1----1-1-1-1-3-1-0----3-3h5-3-0-3--3-3-3--------7---------|


PLAY INTRO A x3

C#|-------------------------------|  
G#|-------------------------------|
E |-------------------------------|
B |--------3---5---5--4---3---5---|
F#|-8--7---3---5---3--2---3---5---|
B |-6--5---3---5----------3---5---|


PLAY RIFF 1 x2

C#|---------------------------------------------------------------------|
G#|---------------------------------------------------------------------|
E |---------------------------------------------------------------------|
B |---------------------------------------------------------------------|
F#|----------------------------------------------5h6p5----5---------3h5-|
B |-4b1/2--p0-0-0-0-0-0-0-1b1/2--p0-0-0-0-0-0-0---------6---6-5-3-5-----|
              . . . . . .           . . . . . .         .   . . . .

C#|---------------------------------------------------------------------|
G#|---------------------------------------------------------------------|
E |---------------------------------------------------------------------|
B |---------------------------------------------------------------------|
F#|-------------------------------------------------------5h6p5---5-8-6-|
B |-0-0-0-0-0-0-4b1/2-p0-0-0-0-0-0-0-1b1/2-p0-0-0-0-0-0-0-------6-------|
    . . . . . .          . . . . . .          . . . . . .       . . . .

C#|-----------------------|---------------------------------------------|
G#|-----------------------|---------------------------------------------|
E |-----------------------|---------------------------------------------|
B |-----------------------|---------------------------------------------|
F#|-5---5h6p5---5---------|---------------------------------------------|
B |---6-------6---6-5-3-5-|-4b1/2-p0-0-0-0-0-0-0--1b1/2-p0-0-0-0-0-0-0--|
    . .       .   . . . .            . . . . . .           . . . . . .

C#|---------------------------------------------------------------------|
G#|---------------------------------------------------------------------|
E |---------------------------------------------------------------------|
B |---------------------------------------------------------------------|
F#|-5h6p5---5---------3h5-----------------------------------------------|
B |-------6---6-5-3-5-----0-0-0-0-0-0-4b1/2-p0-0-0-0-0-0-0--1b1/2-p0----|

C#|--------------------------------------------------------------------------------|
G#|--------------------------------------------------------------------------------|
E |--------------------------------------------------------------------------------|
B |--------------------------------------------------------------------------------|
F#|-------------5h6p5---5-8-6-5---5h6p5---5----------------------------------------|
B |-0-0-0-0-0-0-------6---------6-------6---6-5-3-5--4b1/2-p0-0-0-0-0-0-0-
C#|--------------------------------------------------------------------------------|
G#|--------------------------------------------------------------------------------|
E |--------------------------------------------------------------------------------|
B |--------------------------------------------------------------------------------|
F#|-----------------------5h6p5---5---------3h5------------------------------------|
B |-1b1/2-p0-0-0-0-0-0-0--------6---6-5-3-5-----0-0-0-0-0-0-4b1/2-p0-0-0-0---------|
             . . . . . .        .   . . . .     . . . . . .          . . .

C#|---------------------------------------------------------------------|
G#|---------------------------------------------------------------------|
E |---------------------------------------------------------------------|
B |---------------------------------------------------------------------|
F#|-----------------------------5h6p5---5-8-6-5---5h6p5----5------------|
B |-0-0-0-1b1/2-p0-0-0-0-0-0-0--------6---------6--------6---6-5-3-5----|
    . . .          . . . . . .        . . . . . .        .   . . . .

        
PLAY CHORUS x2

C#|---------------------------------------------------------------------|
G#|---------------------------------------------------------------------|
E |-------------7---7-7-7-----------------------7---7-7-7--x-x-x-x------|
B |-0-0---5h6---7---7-7-7--8-7-5----0-0---5h6---7---7-7-7--x-x-x-x------|
F#|-0-0---5h6---5---5-5-5--------8--0-0---5h6---5---5-5-5--x-x-x-x------|
B |-0-0---5h6-----------------------0-0---5h6--------------x-x-x-x------|

C#|---------------------------------------------------------------------|
G#|---------------------------------------------------------------------|
E |---------------------------------------------------------------------|
B |---------------------------------------------------------------------|
F#|-----------------------------------------------------6-5-3-----------|
B |-1-1h3-1-0-1----1-1-1-1-3-1-0----3-3h5-3-0-3--3-3-3--------7---------|


[Interlude]

C#|------------------------------|
G#|------------------------------|
E |------------------------------|PLAY x4
B |-----------88877--------------|
F#|-555666555-------66-----------|
B |------------------------------|

C#|------------------------------|
G#|------------------------------|
E |-----------77766--------------|PLAY x4
B |-444555444-------55-----------|
F#|------------------------------|
B |------------------------------|

C#|----------------------------------------------------|
G#|----------------------------------------------------|
E |-7-----6--6/10--9---6--7-----6--6/10--9---6---------|PLAY x4
B |-5---0-4--4/8---7---4--5---0-4--4/8---7---4---------|under the solo
F#|-5---0-4--4/8---7---4--5---0-4--4/8---7---4---------|
B |-5---0-4--4/8---7---4--5---0-4--4/8---7---4---------|


PLAY CHORUS x4

C#|---------------------------------------------------------------------|
G#|---------------------------------------------------------------------|
E |-------------7---7-7-7-----------------------7---7-7-7--x-x-x-x------|
B |-0-0---5h6---7---7-7-7--8-7-5----0-0---5h6---7---7-7-7--x-x-x-x------|
F#|-0-0---5h6---5---5-5-5--------8--0-0---5h6---5---5-5-5--x-x-x-x------|
B |-0-0---5h6-----------------------0-0---5h6--------------x-x-x-x------|

C#|---------------------------------------------------------------------|
G#|---------------------------------------------------------------------|
E |---------------------------------------------------------------------|
B |---------------------------------------------------------------------|
F#|-----------------------------------------------------6-5-3-----------|
B |-1-1h3-1-0-1----1-1-1-1-3-1-0----3-3h5-3-0-3--3-3-3--------7---------|


PLAY INTERLUDE x8

C#|------------------------------|
G#|------------------------------|
E |------------------------------|PLAY x4
B |-----------88877--------------|
F#|-555666555-------66-----------|
B |------------------------------|

C#|------------------------------|
G#|------------------------------|
E |-----------77766--------------|PLAY x4
B |-444555444-------55-----------|
F#|------------------------------|
B |------------------------------|

C#|----------------------------------------------------|
G#|----------------------------------------------------|
E |-7-----6--6/10--9---6--7-----6--6/10--9---6---------|PLAY x4
B |-5---0-4--4/8---7---4--5---0-4--4/8---7---4---------|under the solo
F#|-5---0-4--4/8---7---4--5---0-4--4/8---7---4---------|
B |-5---0-4--4/8---7---4--5---0-4--4/8---7---4---------|


[Outro]

C#|-----------------------------------------------|
G#|-----------------------------------------------|
E |-----------------------------------------------|PLAY x5 Then;
B |-0-1--0---6-6-5-1---0-1--0---8-8-7-1-----------|
F#|-0-1--0---6-6-5-1---0-1--0---8-8-7-1-----------|
B |-0-1--0---6-6-5-1---0-1--0---8-8-7-1-----------|

C#|------------------------------------------|
G#|------------------------------------------|
E |------------------------------------------|
B |-0-1--0---6-6-5-1---0--1-0--8-8-8-7-7--1--|
F#|-0-1--0---6-6-5-1---0--1-0--8-8-8-7-7--1--|
B |-0-1--0---6-6-5-1---0--1-0--8-8-8-7-7--1--|
                               . . . . .

C#|-----------------------------------------------|
G#|-----------------------------------------------|
E |-----------------------------------------------|PLAY x2
B |-0-1--0---6-6-5-1---0-1--0---8-8-7-1-----------|
F#|-0-1--0---6-6-5-1---0-1--0---8-8-7-1-----------|
B |-0-1--0---6-6-5-1---0-1--0---8-8-7-1-----------|


************************************

| x  Dead note
| h  Hammer-on
| p  Pull-off
| b  Bend
| /  Slide
| <  Tremolo Pick   
| .  Palm mute

************************************

            
            
Suggest correction
Creating personal tab
Creating personal tab
You can edit any tab online and save it as your Personal.

You can edit, replace or remove any tab part or add personal notes – all changes will be seen only by you.

Personal tabs can be accessed anytime from any device, even offline.
Learn more »
comments
print report bad tab
17 comments total. Showing first comments. show 1 bad comment
+4 reply
Axe Master 3000 10 Oct 07, 2008 06:48 PM

Dude...........Your AWESOME

+3 reply
riffmerchant 81 Oct 08, 2008 03:59 AM

thanks

guest
You may want to rate the tab now too:
select rating
Wanna post a correction for this tab? Suggest correction